Used Tabs

Greener With The Scenery

4 versions

TAB

            Greener With The Scenery Tab by Used


This is played in standard tuning!! 

The Intro is played through out the entire song

Intro/Verses
-----0----0------------------------------------------------
------------3--1-----1-----0-1----0-1----0-1----------0----
---2---2----------2-----2-----------------------2--0----0--
--------------------------------3------3------3-----0------
-0-------------0-------------------------------------------
-----------------------------------------------------------

Somwhere in between verses
-----------------------------------------------------------
-----5-----------------------------------------------------
-----5-----------------------------------------------------
-----5---5------------------------------------------------
-----3---5-------------------------------------------------
---------3-------------------------------------------------
"change..."

CHORUS
-------------------------------------------------------------
-------------------------------------------------------------
-------------------------------------------------------------
---55555-555-55555-5-5--10----------55555-555-55555-5-5--10--
---33333-333-55555-5-5---8----------33333-333-55555-5-5---8--
-------------33333-3-3------------------------33333-3-3------
'round again, round again circles, play this game over again'

-----------------------------------------------------------
-----------------------------------------------------------
-----------------------------------------------------------
--55555-555------------------7--9--10----------------------
--33333-333------------------5--7---8----------------------
-----------------------------------------------------------
'round again, round again...cir-ce-ls...'

Thaz about it!! Good luck!!    

Added On December 12th, 2013

SHARE

Comments

blog comments powered by Disqus