Used Tabs

Take It Away

8 versions

TAB

            Take It Away Tab by Used


#----------------------------------PLEASE NOTE--------------------------------#
#This file is the author's own work and represents their interpretation of the#
#song. You may only use this file for private study, scholarship, or research.#
#---------------------------------------------------------------------------
#-- File created with Instab - http://www.pconline.com/~smcarey/instab.html
#---------------------------------------------------------------------------#
Author/Artist: the used
Title: take it away
Album: in love and death
Transcribed by: paul
i spent ages on this song and it sounds as accurate as
it possibly could! the verse may look confusing and
short but TRUST ME, tis tab program is hard to use
and the notes in the verses are held out longer than they
are written!just listen to the cd and you will see its right!
please comment!hop you enjoy!
-|-0-0-0-0-0-0-0-0-0-0-0-0-0-0-0-0-0-|-x4------------------------------------|
-|-8-8-8-8-8-8-8-8-8-8-8-8-8-8-8-8-8-|---------------------------------------|
-|-111111111111111111111111111111111-|---------------------------------------|
-|-----------------------------------|---------------------------------------|
-|-----------------------------------|---------------------------------------|
-|-----------------------------------|---------------------------------------|
   intro guitar 1 (1111 is eleven's, not 1's)
-|------------------------------------------0-|------------------------------|
-|------------------------------------------0-|------------------------------|
-|-9\------9\--------------9\-------9\--------|------------------------------|
-|-9\---x--9\----9-9-9-9---9\----x--9\--------|------------------------------|
-|-7\---x--7\----7-7-7-7---7\----x--7\--------|------------------------------|
-|-0\------0\--------------0\-------0\--------|------------------------------|
   guitar 2intro
-|-0-0-----------------------------|x4---------------------------------------|
-|-0-0-----------------------------|-----------------------------------------|
-|-0-0-----------------------------|-----------------------------------------|
-|-2-2--5-5-5-5--7-7--10-10-10-10--|-----------------------------------------|
-|-2-2--5-5-5-5--7-7--10-10-10-10--|-----------------------------------------|
-|-0-0--3-3-3-3--5-5---8--8--8--8--|-----------------------------------------|
   maintheme
-|--0-0-0-0-0-0-0-0-0-0-0-0-0-0-0-0-0-0-0-0-0-0-0-0-0-0-0-0-0-0-0-0-0-0-0-0-|
-|--8-8-8-8-8-8-8-8-8-8-8-8-7-8-8-8-8-8-8-7-8-8-8-8-8-8-8-8-8-8-8-8-8-8-8-8-|
-|--11111111111111111111111111111111111111111111111111111111111111111111111-|
-|--------------------------------------------------------------------------|
-|--------------------------------------------------------------------------|
-|--------------------------------------------------------------------------|
 verse(do chord until.....'chemicalromance'
-|----7----7----7---------0-0--0--0--7--7--0--0--0--0--7---7--7-7-7-7--|-----|
-|-10---10---10---10-8-10------------8-----------------10--8--8-8-8-8--|-----|
-|---------------------------------------------------------------------|-----|
-|---------------------------------------------------------------------|-----|
-|---------------------------------------------------------------------|-----|
-|---------------------------------------------------------------------|-----|

-|-00-00-00-00-00-7777-00-00-00|---------------------------------------------|
-|-88-88-88-88-88-8888-88-88-88|---------------------------------------------|
-|-----------------------------|---------------------------------------------|
-|-----------------------------|---------------------------------------------|
-|-----------------------------|---------------------------------------------|
-|-----------------------------|---------------------------------------------|
   pre chorus                       then main chorus
-|-77-77-77-77-7777-|------0---------------------0-----------0---|-----------|
-|-88-88-88-88-8888-|----8-------8--0--8p7-7--0--------8--0------|-----------|
-|------------------|-11------11--------------------11-----------|-----------|
-|------------------|--------------------------------------------|-----------|
-|------------------|--------------------------------------------|-----------|
-|------------------|--------------------------------------------|-----------|
  pre verse                 2ndverse
-|----7----7----7---------0--0--0--0--7-7-0-0-0-0---7--7-7-7-7-7--|----------|
-|-10---10---10---10-8-10-------------8------------10--8-8-8-8-8--|----------|
-|----------------------------------------------------------------|----------|
-|----------------------------------------------------------------|----------|
-|----------------------------------------------------------------|----------|
-|----------------------------------------------------------------|----------|
  cont
--|-0--0--0--0--0--0--0--0--0--0--0-0-0-0--|---------------------------------|
--|-8--8--8--8--8--8--8--8--8--8--8-8-8-8--|---------------------------------|
--|-11-11-11-11-11-11-11-11-11-11-1111111--|---------------------------------|
--|----------------------------------------|---------------------------------|
--|----------------------------------------|---------------------------------|
--|----------------------------------------|---------------------------------|
    pre chorus                                do chorus then
-|-7--7--7--7--7--7-|x8---000000000000000000000000000|-x2--------------------|
-|-8--8--8--8--8--8-|-----888888888888888888888888888|-----------------------|
-|-9--9--9--9--9--9-|-----999999999999999999999999999|-----------------------|
-|------------------|--------------------------------|-----------------------|
-|------------------|--------------------------------|-----------------------|
-|------------------|--------------------------------|-----------------------|
'brothers and sisters')               nextbit
-|----------------------|-x4-------------------------------------------------|
-|----------------------|----------------------------------------------------|
-|----------------------|----------------------------------------------------|
-|----------------------|----------------------------------------------------|
-|----------------------|----------------------------------------------------|
-|-0000-333333-5555-8888|----------------------------------------------------|
  technobit
-|-00-----------------------------------------------|------------------------|
-|-00-----------------------------------------------|------------------------|
-|------------------------------77777--7777--5555---|------------------------|
-|-22--5555-77--10101010---222--77777--7777--5555---|------------------------|
-|-22--5555-77--10101010---222--55555--4444--3333---|------------------------|
-|-00--3333-55---8-8-8-8---000----------------------|------------------------|
   last chorus  and then intro to end    

Added On December 12th, 2013

SHARE

Comments

blog comments powered by Disqus