Van Halen Tabs

5150

1 versions

TAB

            5150 Tab by Van Halen


+++++++++++++++++++++++++++++++++++++++++++++++++++++++++++++++++++++++++++++++
5150 - Van Halen
+++++++++++++++++++++++++++++++++++++++++++++++++++++++++++++++++++++++++++++++
 Transcribed by Paul D.

Here's the signature riff of the song (play it FAST!):
E-|-----------------|-----------------|-4---------------|---------4---------|
B-|-7---5---5-7-----|-7-----5---7-----|-5-5-------------|---------5---------|
G-|-7---7---7-7-----|-7-----7---7-----|---4-4-------4---|-4-4-4-----4-------|
D-|-7-7---7-----7-7-|---7-7---7---7-6-|-----6-6-----4---|-4-4-6-------6-----|
A-|-----------------|-----------------|-------7-7-7---7-|-------7-------7\5-|
D-|-----------------|-----------------|-----------------|-------------------|


E-|-2---------------|-----------------|-----------------|---------------2-2/|
B-|-3---------------|---------3-------|-3p2-----------3-|-3-2-2-----2-2-3-3/|
G-|---2---------2---|-2-2-------2-----|----------2----2-|-2-2-2-----2-2-2-2/|
D-|-----4-4-----2---|-2-4---------4---|------2-----2--4-|-4-2-2-2-2-2-2-0-0-|
A-|-------5-5-5---5-|------5--------5-|-----------------|---0-0-2-2-0-0-0-0-|
D-|-----------------|-----------------|-----------------|-------2-2-----0-0-|

Repeat 3x; then...

E-|-10--10--9--9--7--7--9--9--10--10\||
B-|-10--10-10-10--9--9-10-10--10--10\||
G-|----------------------------------||
D-|----------------------------------||
A-|----------------------------------||
D-|----------------------------------||


Okay, this next part you repeat twice.  One time with the first ending
that I've tabbed out (marked between the 1>>>> and  to    

Added On December 12th, 2013

SHARE

Comments

blog comments powered by Disqus

ADVERTISEMENT