Van Halen Tabs

Heres Just What She Wanted

1 versions

TAB

            Heres Just What She Wanted Tab by Van Halen


HERE'S JUST WHAT SHE WANTED
Van Halen
Unreleased Compilation, volume 2
Live,Whiskey a GoGo 12/31/77
tabbed by dsale@jax.jaxnet.com
http://jax.jaxnet.com/~dsale

Ok,i really liked the beginning of this tune,so i tabbed it out.i dont think
ive even listened to the rest of the song,i just heard the beginning and was
like WOW...immediate rewind,i had to learn it..i just wish there was a studio
version..
any corrections,please lemme know.
anyone that can make out the lyrics,lemme know.


------1--1--1-----------0--1-----3--3--3------------1--------0--1-------|
------3--3--3-----------3--3-----3--3--3------------3--3-----3--3-------|
------2--2--2-----------3--3-----0--0--0------------2--2-----3--3--0----|
------------------0------------------------------------------------0----|
------------------------------------------------------------------------|
15\3---------------------------------------/6\--------------------------|

      trem. picking..

------10--12--13\|
-----------------|
0--0-------------|
0--0-------------|
-----------------|
-----------------|

                w/MXR phase 90
    t
5--(17)\---------------------1-----------------1-----------------0------|
--------------------------3-----------------3--------------3------------|
-----------------------2-----------------0--------------------3---------|
-----------------0------------------------------------------------------|
-----------------------------------3-----------------1------------------|
------------------------------------------------------------------------|

------------------------------1-----------------1-------------0-0--0----|
3--------------------------3-----------------3-----------------/5--6----|
---3-----3--------------2-----------------2--------------2/3---/5--5----|
------3-----------0-----------------------------------------------------|
------------------------------------3-----------------1-----------------|
------------------------------------------------------------------------|

0----------------1--------------1-----------------0---------------------|
5\------------3--------------3-----------------3-----3------------------|
5\---------2--------------2-----------3-----3-----------3--------2------|
--------0--------------------------------3--------------------0---------|
-----------------------3-----------1------------------------------------|
------------------------------------------------------------------------|


                      *slight volume swell during slides
---1-----------1--------------------------------------------------------|
3-----------3-----------------------------------------------------------|
---------2--------2---/3/5\3--------------------------------------------|
------3-----------2---/3/5\3--------------------------------------------|
------------------0-----------------------------------------------------|
------------------------------------------------------------------------|


mute---------------------------------------------------------------------|
-------------------------------------------------------------------------|
---------------------------------------------------------------5--3------|
---------------------------------------------------------2--3--5--3------|
2-----2--2-----2-----2--2-----2-----2--2-----2-----2--2--2--3--5--3------|
0-----0--0-----0-----0--0-----0-----0--0-----0-----0--0------------------|
-------------------------------------------------------------------------|    

Added On December 12th, 2013

SHARE

Comments

blog comments powered by Disqus

ADVERTISEMENT