Van Halen Tabs

Outta Love Again

2 versions

TAB

            Van Halen - Outta Love Again - Tuning (E - flat) (down 1/2 step)

I'm going to tab this out because there isn't a good enough tab
with all of the fills and verse.

|---------------------------|-----------|
|--(repeat umpteen times)---|-----------|
|---------------------------|-----------|
|-----------5~--------------|--9--7--9--|
|--7--5--7-----7--5--7------|--7--5--7--|
|-----------------------3~--|-----------|

|-----------------------------------------------------------|
|-----------------------------------------------------------|
|-----------------------------------------------------------|
|-4-5-6----5-6-7----6-7-8----7-8-(9)--------9--------9------|
|-2-3-4----3-4-5----4-5-6----5-6-(7)-8-7----7-8-7----7-8-7--|
|------------------------------------6-5------6-5------6-5--|

|-------------------------------------------------------|
|-------------------------------------------------------|
|-------------------------------------------------------|
|--------------------9----------------------------------|
|--------------------7-8-7----------------------------2-|
|-6p5p3----------------6-5--6p5p3-------------6p5p3---0-|
       "Outta love!"             "Outta love!"

(fill #1)
|---------------------------------------------------------|
|------(these notes are pinch harmonics)------------------|
|-2^-2^-2^-2^---2^-2^-2^------3^-3^-3^-3^---3^-3^-3^------|
|------------------------2---------------------------2----|
|---------------------------------------------------------|
|-------------0-------------0-------------0------------0--|

|---------------------------|-----------|
|--(repeat umpteen times)---|-----------|
|---------------------------|-----------|
|-----------5~--------------|--9--7--9--|
|--7--5--7-----7--5--7------|--7--5--7--|
|-----------------------3~--|-----------|

|-----------------------------------------------------------|
|-----------------------------------------------------------|
|-----------------------------------------------------------|
|-4-5-6----5-6-7----6-7-8----7-8-(9)--------9--------9------|
|-2-3-4----3-4-5----4-5-6----5-6-(7)-8-7----7-8-7----7-8-7--|
|------------------------------------6-5------6-5------6-5--|

|-------------------------------------------------------|
|-------------------------------------------------------|
|-------------------------------------------------------|
|--------------------9----------------------------------|
|--------------------7-8-7----------------------------2-|
|-6p5p3----------------6-5--6p5p3-------------6p5p3---0-|
       "Outta love!"             "Outta love!"


I don't know the solo yet, sorry, I will post it in the near future.

this tab is just the riffs of the song not the whole song all the way through.    

Added On December 16th, 2013

SHARE

Comments

blog comments powered by Disqus

VERSIONS

ADVERTISEMENT