Vandals Tabs

When I Say You I Mean Me

1 versions

TAB

            When I Say You I Mean Me Tab by Vandals


Song:When i say you,I mean me
Album:Internet Dating Superstuds
Band:The Vandals
E-mail:greenday_rhcp2002@yahoo.co.uk

..=Palm mute
 ~=Let note ring


Intro
|-------------------|
|-------------------|
|-------------------|
|-9--8--6---4--2----|
|-7--6--4---2--0--2-|
|-----------------0-|    

Intro Part 2
|---------|
|---------|
|---------|
|---------|
|-7-6-----|
|-----5-7-|

2nd guitar intro
|---------------------------------------------------------------------|
|-17------------------------------------------------------------------|
|---16------13-16-13--11-9-11-11-11-11-11-11-11-11/-16-16-16-16-16-16-|
|-----14-16-----------------------------------------------------------|
|---------------------------------------------------------------------|
|---------------------------------------------------------------------|

Verse
|------------------------------------------------------------|
|------------------------------------------------------------|
|------------------------------------------------------------|
|-9--9-9-9-9--9--8--8-8-8-8--8-------------------------------|
|-7--7-7-7-7--7--6--6-6-6-6--6--7--7-7-7-7--7--9--9-9-9-9--9-|
|-------------------------------5--5-5-5-5--5--7--7-7-7-7--7-|
     . . . .        . . . .        . . . .        . . . .   

|------------------------------------------------------------|
|------------------------------------------------------------|
|------------------------------------------------------------|
|-9--9-9-9-9--9--8--8-8-8-8--8-------------------------------|
|-7--7-7-7-7--7--6--6-6-6-6--6--7--7-7-7-7--7--9--9-9-9-9--9-|
|-------------------------------5--5-5-5-5--5--7--7-7-7-7--7-|
     . . . .        . . . .        . . . .        . . . .  

|---------------------------------|
|---------------------------------|
|---------------------------------|
|---------------------------------|
|-9-9-9-9-9-9-9-9-9-9-9-9-9-9-9-9-|
|-7-7-7-7-7-7-7-7-7-7-7-7-7-7-7-7-|

Bridge
|-----------------------|
|-----------------------|
|-----------------------|
|-2-2--3-3--4-4-4-4-4-4-|
|-0-0--1-1--2-2-2-2-2-2-|
|-----------------------|

Solo(Very easy but great solo)
|-------------------------------------------------------|
|-17---------------------17-----------------------------|
|--------16--18--16--18-----16--------13--16--13--11--9-|
|----14------------------------14--16-------------------|
|-------------------------------------------------------|
|-------------------------------------------------------|


|-------------------------------------------------------------------|
|-------------------------------------------------------------------|
|-4-4-4-4-4-4-4-4/6-6-6-6--8-8-8-8--6-6-6-6--4-4-4-4--2-2-2-2-1-2-2-|
|-------------------------------------------------------------------|
|-------------------------------------------------------------------|
|-------------------------------------------------------------------|


|-------------------------------------------------------|
|-17---------------------17-----------------------------|
|--------16--18--16--18-----16--------13--16--13--11--9-|
|----14------------------------14--16-------------------|
|-------------------------------------------------------|
|-------------------------------------------------------|


|---------------------------------|
|---------------------------------|
|-4-4-4-4-4-4-4-4-4-4-4-4-4-4-4-4-|
|---------------------------------|
|---------------------------------|
|---------------------------------|


2nd guitar outro
|----------------------------|
|-17-------------------------|
|---16---------13-16-13-11-9-|
|------14-16~----------------|
|----------------------------|
|----------------------------|x3

2nd guitar Ends on this
|-----------------------|
|-----------------------|
|-----------------------|
|-14--13--11~--9--7--2~-|
|-----------------------|
|-----------------------|

Listen to song For Proper timing and order.Its easy to figure out.
Theres two guitars also.Great song,great band.
Please Rate.    

Added On December 16th, 2013

SHARE

Comments

blog comments powered by Disqus

ADVERTISEMENT