Vast Tabs

Having Part Of You

2 versions

TAB

            Having Part Of You Tab by Vast


VAST - Having Part Of You


This is the acoustic version played in Seattle


Tuning: Standard - Low to High (E;A;D;G;B;e)
Timing: 106 BPM


>>>>>>>>>>>>>>>>>>>>>>>>>>>>>>>>>>>>>>>>>>>>>>>>>>>>>>>>>>>>>>>>>>>>>>


Intro/Verse - Finger Picked


e|----------------|
B|----------------|
G|-0--------------|
D|---4~-----------|
A|----------------|
E|-0--------------|


e|-0-----0--------|----------------|----------------|----------------|
B|----------------|-3-----3--------|-3-----3--------|-2---2-3-2---0--|
G|-----0----0---0-|-----0----0---0-|-----0----0---0-|---2-------2----|
D|---4--------4---|---4--------4---|---4--------4---|----------------|
A|----------------|-2--------------|-5--------------|-0--------------|
E|-0--------------|----------------|----------------|----------------|


Play the above twice for the intro, and then repeat the same thing four times over for the first verse.


Chorus - Strummed

   Em		    Bm		     D		      A	  Asus A Asus2
e|----------------|-2--2-2--2-2-2--|-2--2-2--2-2-2--|----------------|
B|----------------|-3--3-3--3-3-3--|-3--3-3--3-3-3--|-2-2-2/3--2-2-0-|
G|----------------|-4--4-4--4-4-4--|-2--2-2--2-2-2--|-2-2-2-2--2-2-2-|
D|-2--2-2--2-2-2--|-4--4-4--4-4-4--|----------------|-2-2-2-2--2-2-2-|
A|-2--2-2--2-2-2--|-2--2-2--2-2-2--|----------------|----------------|
E|----------------|----------------|----------------|----------------|


>>>>>>>>>>>>>>>>>>>>>>>>>>>>>>>>>>>>>>>>>>>>>>>>>>>>>>>>>>>>>>>>>>>>>>    

Added On December 16th, 2013

SHARE

Comments

blog comments powered by Disqus

VERSIONS

ADVERTISEMENT