Velvet Revolver Tabs

Let It Roll

3 versions

TAB

            Artist: Velvet Revolver
Title:  Let It Roll
Album:  Libertad

Standard Tuning, EADGBA

Intro:

w/wah
e|---------------------|	x4
B|---------------------|
G|---------------------|
D|------------------0--|
A|---------------------|
E|12-11-10----5-4-3----|


e|---------------------| x4
B|---------------------|
G|------------------2--|
D|------------------0--|
A|14-13-12----7-6-5----|
E|12-11-10----5-4-3----|


Verse:

e|---------------------|	x4
B|---------------------|
G|---------------------|
D|------------------0--|
A|2-------------0h2----|
E|0-----------3--------|


Pre-Chours:

e|----------------------|
B|----------------------|
G|----------------------|
D|----------------------|
A|10----14-12-----16-14-|
E|8-----12-10-----14-12-|


Chours:

e|---------------------| x4
B|---------------------|
G|------------------2--|
D|------------------0--|
A|14-13-12----7-6-5----|
E|12-11-10----5-4-3----|


Verse:

e|---------------------|	x4
B|---------------------|
G|---------------------|
D|------------------0--|
A|2-------------0h2----|
E|0-----------3--------|


Pre-Chours:

e|----------------------|
B|----------------------|
G|----------------------|
D|----------------------|
A|10----14-12-----16-14-|
E|8-----12-10-----14-12-|


Chours:

e|---------------------| x4
B|---------------------|
G|------------------2--|
D|------------------0--|
A|14-13-12----7-6-5----|
E|12-11-10----5-4-3----|

Bridge:

e|----------------------|
B|----------------------|
G|----------------------|
D|----------------------|
A|8-----12-10-----14-12-|
E|6-----10-8------12-10-|


Solo:

Haven't been able to figure out the solo yet, try messing around with the E minor 
scale, it sounds pretty great to me.


Chris89, chrisley999@hotmail.com    

Added On December 16th, 2013

SHARE

Comments

blog comments powered by Disqus

VERSIONS

ADVERTISEMENT