Verdena Tabs

Don Calisto

1 versions

TAB

            REQUIEM - DON CALISTO (TRACK 2)
  tabbed by bizkit (mauryon@tiscali.it)

Accordatura standard (EBGDAE)

Verso:

E|-----------------------------------------------------|
B|-----------------------------------------------------|
G|-----------------------------------------------------|
D|22---------6------22---------5-----------------------|
A|22---------6------22---------5-----------------------|
E|00---5/7---4------00---5/7---3-----------------------|

รจ il main riff di tutta la canzone.

Assolo:

E|-----------7--------------9-------|   |--9/10-10-10-10-10-10-10|
B|-----9^10-----------9^10----------|   |------------------------|
G|9--------------9------------------|X4 |------------------------|
D|----------------------------------|   |------------------------|
A|----------------------------------|   |------------------------|
E|----------------------------------|   |------------------------|    

Added On December 16th, 2013

SHARE

Comments

blog comments powered by Disqus

ADVERTISEMENT