Veruca Salt Tabs

Aurora

1 versions

TAB

            Intro /Verse:

e-------------------------------------------------------------|
b------------------s----------------------------s-------------|
g--------------4---------------------------2------------------|
d----------5---------------------------3----------------------|
A------5---------------------------3--------------------------|
E--3---------------------------1------------------------------|


e-----------------------------------------------------------------------|
b----------------5-----------5---------5---------5--------5-------------|
g------------5---------------5---------5---------5--------5-------------|
d--------5-------------------3---------3---------3--------3-------------|
A----3------------------------------------------------------------------|
E-----------------------------------------------------------------------|

 1st Chorus:

C5            A5
Had you in my hand
                  F5
Now where did you go, Aurora?
C5         A5
See you up ahead,
            F5                  G5 B5     C5
But I don’t know if I can go as far as you go

Verse

2nd Chorus:
(C5, A5, F5,)
C5, G5, B5,

C5                 G5              B5
And everyone keeps telling me that this is good
C5              G5             B5
I needed you to tell me it was good too

3rd Chorus

Intro


Sorry, don’t know the solo. I’ll tab it later.    

Added On December 16th, 2013

SHARE

Comments

blog comments powered by Disqus

ADVERTISEMENT