Veto Tabs

Cannibal

2 versions

TAB

            Cannibal Tab by Veto


-------------------------------------------------------------------------------
			     Cannibal - Veto
-------------------------------------------------------------------------------
Tabbed by: Jonas

Tuning: EADGBe

I think this is the best song on Vetos debut album There's A Beat In All Machines...

You can play this little bit through the entire song,

e|--------------------------------------------------------------------------------------|
B|---3--3--3-3--3-3--3--3-3--3--3--1--1--1-1--1--3--3--3--1----------------1--1--1------|
G|-----------------------------------------------------------3--3--3-3--3------------2--|
D|---0--0--0-0--0-0--0--0-0--0--0-------------------------------------------------------|
A|---------------------------------0--0--0-0--0--1--1--1--0-----------------0--0--0--0--|
E|-----------------------------------------------------------3--3--3-3--3---------------|

And so on....

This was my first tab    

Added On December 16th, 2013

SHARE

Comments

blog comments powered by Disqus

VERSIONS

ADVERTISEMENT