Veto Tabs

You Say Yes I Say Yes

1 versions

TAB

            this song sounds i bit complicated, but it's not. listen to the song and you can hear 
the rythm is like. use a delay pedal, to make it sound right. the delay speed has to be 
fast. enjoy :)

e--------------------|
b------------10-8-8--|
g-7-7-7-9-9-9--------|x3
d--------------------|
a--------------------|
E--------------------|

the fourth time he plays it, he makes i little variation

e--------------------------------|
b------------10-9-9-9------------|
g-7-7-7-9-9-9--------7-6-6-6-7-7-|
d--------------------------------|
a--------------------------------|
E--------------------------------|

he plays those to bits twice and the third time he plays it much faster and with 
some more variation

e------------------------------------|
b------------10-10-9-9-9-------------|
g-7-7-7-9-9-9-----------7-7-6-6-6-6--|
d------------------------------------| x8
a------------------------------------|
E------------------------------------|

and then the last time

e---------------------------------------|
b------------10-10-9-9-9----------------|
g-7-7-7-9-9-9-----------7-7-6-6-6-6-7-7-|
d---------------------------------------|
a---------------------------------------|
E---------------------------------------|    

Added On December 16th, 2013

SHARE

Comments

blog comments powered by Disqus

ADVERTISEMENT