Victor And Leo Tabs

Mariposas

1 versions

TAB

            espaƱol 
intro:
 Bm                 D                       A                   Bm
e|-------------------------------------------------------------------|
B|-------------------------------------------------------------------|
G|-----2-4-4-2---4-2---4-4-2---2-4-2---2-2-----2-----2-2-----2-2-----|
D|-0/4---------4-----4-------4-------4-----4-2---4-2-----4-2-----4-2-|
A|-------------------------------------------------------------------|
E|-------------------------------------------------------------------|

     	Bm                         D                           Bm
e|---------------------------------2---2---------5-------5------------|
B|-3-3-2---3-2---3-3-2---2-3-2-------5---5-3----5--5----5-5-----------|
G|-------4-----4-------4-------3-4---------4---6----6--6---6--5-5-7-5-|
D|-------------------------------------------7--------7-----7-6-6-7-6-|
A|--------------------------------------------------------------------|
E|--------------------------------------------------------------------|

         Bm                     D
yo siento que el tiempo ya no pasa
                         A
Dices que no sabias a nada
  Bm
Amar asi
  Bm
Fue todo tan bonito
        D
Que volaste al infinito
      A                          Bm
Casi como Las mariposas de un jardin
  Em          G
y Ahora que regresas
 D                               A
Y confundes lo que en otra encontre tambien
Em                 G
Dividido entre dos mundos
             A
Se que estoy amando
                 Bm
Pero aun no se a quien...

       G             D
No se decir lo que cambio
     A               Bm
Mas nada ha quedado igual
     G           D
Una noche nos buscamos
      A              Bm
Y al final todo esta mal
   G               D
Pues tu quieres provar
    A         Bm
Si esto ya termino
   G                D
Mariposas siempre vuelven
     A              Bm
tu jardin siempre soy yo

solo:

         Am
E|---12-12-12--13-13-13--12-12-12-12-12-12--13-13-13-13---|
B|---13-13-13--13-13-13--13-13-13-13-13-13--13-13-13-13---|
G|--------------------------------------------------------|
D|--------------------------------------------------------|
A|--------------------------------------------------------|
E|--------------------------------------------------------|

         C
E|-12-12-12--13-13-13--12-12-12-12-12-12--13-13-13-13---|
B|-13-13-13--13-13-13--13-13-13-13-13-13--13-13-13-13---|
G|------------------------------------------------------|
D|------------------------------------------------------|
A|------------------------------------------------------|
E|------------------------------------------------------|

         G                                               Em
E|-12-12-12--13-13-13--12-12-12-12-12-12\10--10-10-10\7-7-7---|
B|-13-13-13--13-13-13--13-13-13-13-13-13\12--12-12-12\8-8-8---|
G|------------------------------------------------------------|
D|------------------------------------------------------------|
A|------------------------------------------------------------|
E|------------------------------------------------------------|

   D                         Bm
e|-2---2---------5-------5-----------|
B|---5---5-3----5-5-----5-5----------|
G|---------4---6---6---6---6-5-5-7-5-|
D|-----------7-------7-------6-6-7-6-|
A|-----------------------------------|
E|-----------------------------------|
         Bm                     D
yo siento que el tiempo ya no pasa
                         A
Dices que no sabias a nada
  Bm
Amar asi
  Bm
Fue todo tan bonito
        D
Que volaste al infinito
      A                          Bm
Casi como Las mariposas de un jardin
  Em          G
y Ahora que regresas
 D                               A
Y confundes lo que en otra encontre tambien
Em                 G
Dividido entre dos mundos
             A
Se que estoy amando
                 Bm
Pero aun no se a quien...

       G             D
No se decir lo que cambio
     A               Bm
Mas nada ha quedado igual
     G           D
Una noche nos buscamos
      A              Bm
Y al final todo esta mal
   G               D
Pues tu quieres provar
    A         Bm
Si esto ya termino
   G                D
Mariposas siempre vuelven
     A              Bm
tu jardin siempre soy yo

       G             D
No se decir lo que cambio
     A               Bm
Mas nada ha quedado igual
     G           D
Una noche nos buscamos
      A              Bm
Y al final todo esta mal
   G               D
Pues tu quieres provar
    A         Bm
Si esto ya termino
   G                D
Mariposas siempre vuelven
     A              Bm
tu jardin siempre soy yo

espero y le entiendan 
dudas en mi perfil de esta pagina misacamisa08

-----------------------------------------------------------------------------

english:
intro:
 Bm                 D                       A                   Bm
e|-------------------------------------------------------------------|
B|-------------------------------------------------------------------|
G|-----2-4-4-2---4-2---4-4-2---2-4-2---2-2-----2-----2-2-----2-2-----|
D|-0/4---------4-----4-------4-------4-----4-2---4-2-----4-2-----4-2-|
A|-------------------------------------------------------------------|
E|-------------------------------------------------------------------|

     	Bm                         D                           Bm
e|---------------------------------2---2---------5-------5------------|
B|-3-3-2---3-2---3-3-2---2-3-2-------5---5-3----5--5----5-5-----------|
G|-------4-----4-------4-------3-4---------4---6----6--6---6--5-5-7-5-|
D|-------------------------------------------7--------7-----7-6-6-7-6-|
A|--------------------------------------------------------------------|
E|--------------------------------------------------------------------|

     Bm                    D
I feel that time does not pass
               A
You say you did not know anything
   Bm
Love so
   Bm
It was so nice
         D
You flew to infinity
     A          Bm
Almost like a garden butterflies
   G            Em
and now you come back
  D                      A
And confused as also found in other
 G                Em
Torn between two worlds
              A
I know I'm loving
                  Bm
But still do not know who ...

   G                 D
I can not say what changes
   A                Bm
But nothing has stayed the same
 G           D
One night we seek
    A                   Bm
And in the end everything is wrong
    G          D
So you want to try
  A        Bm
If this term and
    G             D
Butterflies always return
      A           Bm
your garden's always me

alone:

         Am
E|---12-12-12--13-13-13--12-12-12-12-12-12--13-13-13-13---|
B|---13-13-13--13-13-13--13-13-13-13-13-13--13-13-13-13---|
G|--------------------------------------------------------|
D|--------------------------------------------------------|
A|--------------------------------------------------------|
E|--------------------------------------------------------|

         C
E|-12-12-12--13-13-13--12-12-12-12-12-12--13-13-13-13---|
B|-13-13-13--13-13-13--13-13-13-13-13-13--13-13-13-13---|
G|------------------------------------------------------|
D|------------------------------------------------------|
A|------------------------------------------------------|
E|------------------------------------------------------|

         G                                               Em
E|-12-12-12--13-13-13--12-12-12-12-12-12\10--10-10-10\7-7-7---|
B|-13-13-13--13-13-13--13-13-13-13-13-13\12--12-12-12\8-8-8---|
G|------------------------------------------------------------|
D|------------------------------------------------------------|
A|------------------------------------------------------------|
E|------------------------------------------------------------|

   D                         Bm
e|-2---2---------5-------5-----------|
B|---5---5-3----5-5-----5-5----------|
G|---------4---6---6---6---6-5-5-7-5-|
D|-----------7-------7-------6-6-7-6-|
A|-----------------------------------|
E|-----------------------------------|

     Bm                    D
I feel that time does not pass
               A
You say you did not know anything
   Bm
Love so
   Bm
It was so nice
         D
You flew to infinity
     A          Bm
Almost like a garden butterflies
   G            Em
and now you come back
  D                      A
And confused as also found in other
 G                Em
Torn between two worlds
              A
I know I'm loving
                  Bm
But still do not know who ...

   G                 D
I can not say what changes
   A                Bm
But nothing has stayed the same
 G           D
One night we seek
    A                   Bm
And in the end everything is wrong
    G          D
So you want to try
  A        Bm
If this term and
    G             D
Butterflies always return
      A           Bm
your garden's always me

   G                 D
I can not say what changes
   A                Bm
But nothing has stayed the same
 G           D
One night we seek
    A                   Bm
And in the end everything is wrong
    G          D
So you want to try
  A        Bm
If this term and
    G             D
Butterflies always return
      A           Bm
your garden's always me

I hope and I understand
doubt in my profile on this page misacamisa 08    

Added On December 16th, 2013

SHARE

Comments

blog comments powered by Disqus

ADVERTISEMENT