Von Bondies Tabs

Lack Of Communication

4 versions

TAB

            Lack Of Communication Tab by Von Bondies


Lack of Communication by The Von Bondies (http://www.vonbondies.com)

I cant find tabs for this song or even band. This is the coolest song on the new
Jools Holland DVD so I thought i'd tab it. Note that this is accurate (ish)to a
live version and may be a bit different from the record.

Here goes - 

Section 1

Gtr1 A7 / / / / / ////// A7 / / / / / //////

Gtr2
e]------------------------------------------|
B]------------------------------------------|
G]------------------------------------------|
D]------------------------------------------|
A]-----------------------3-----2-----0------|
E]------------------------------------------| x3

Gtr1 A7 / / / / / ////// A7 / / / / / //////

Gtr2
e]------------------------------------------|
B]------------------------------------------|
G]------------------------------------------|
D]------------------------------------------|
A]-----------------------------------0------|
E]-----------------------3-----2------------|

Section 2

Gtr1 A    /    G    /    C    /    D    /   

Gtr2
e]------------------------------------------|
B]------------------------------------------|
G]------------------------------------------|
D]------------------------------------------|
A]-----------------------3----3----5-3--5-3-|
E]---5----5----3----3-----------------------| x10

Section 3
This is played twice between the setions ( except the first time where there is silence)

Gtr1 G    /    /    /    D    /    /    

Thats it. 
Listen to the track to find out where each section is needed.
Peace out.
Abe.    

Added On December 16th, 2013

SHARE

Comments

blog comments powered by Disqus