Von Bondies Tabs

Poison Ivy

2 versions

TAB

            Poison Ivy Tab by Von Bondies


----------------------------------------------------------------------------
			          POISON IVY
----------------------------------------------------------------------------
                           *****The Von Bondies*****
Tuning:Standard

e|-----------------------------------|
B|-----------------------------------|
G|55555555----------55555555---------|
D|55555555-33333333-55555555-33333333|
A|33333333-33333333-33333333-33333333|
E|---------11111111----------11111111|

Repeat until 00:45

e|-------------------------------------------------------------|
B|-------------------------------------888888888888888888888888|
G|55555555----------8888-3333-55555555-777777777777777777777777|
D|55555555-55555555-8888-3333-55555555-555555555555555555555555|
A|33333333-55555555-6666-1111-33333333-------------------------|
E|---------33333333--------------------------------------------|

e|----------------|
B|----------------|
G|5--3------------|
D|------5--3------|
A|------------5--3|
E|----------------|

e|------------------|\
B|------------------| \
G|5555-3-5----------|  >
D|5555-----3333-3~--|  > x4
A|3333-----3333-----| /
E|---------1111-----|/


e|-----------------------------------|\
B|-----------------------------------| \
G|55555555----------55555555---------|  >
D|55555555-33333333-55555555-33333333|  > x2
A|33333333-33333333-33333333-33333333| /
E|---------11111111----------11111111|/


e|-------------------------------------------------------------|
B|-------------------------------------888888888888888888888888|
G|55555555----------8888-3333-55555555-777777777777777777777777|
D|55555555-55555555-8888-3333-55555555-555555555555555555555555|
A|33333333-55555555-6666-1111-33333333-------------------------|
E|---------33333333--------------------------------------------|

e|----------------|
B|----------------|
G|5--3------------|
D|------5--3------|
A|------------5--3|
E|----------------|

e|------------------|\
B|------------------| \
G|5555-3-5----------|  >
D|5555-----3333-3~--|  > x4
A|3333-----3333-----| /
E|---------1111-----|/

e|-----------------------------------|\
B|-----------------------------------| \
G|55555555----------55555555---------|  >
D|55555555-33333333-55555555-33333333|  > x5
A|33333333-33333333-33333333-33333333| /
E|---------11111111----------11111111|/

****************
| /  slide up  *
| \  slide down*
| h  hammer-on *
| p  pull-off  *
| ~  vibrato   *
| +  harmonic  *
| x  Mute note *
=============================================================================    

Added On December 16th, 2013

SHARE

Comments

blog comments powered by Disqus

VERSIONS

ADVERTISEMENT