Von Bondies Tabs

Tell Me What You See

2 versions

TAB

            Tell Me What You See Tab by Von Bondies


----------------------------------------------------------------------
		  The Von Bondies - Tell Me What You See
----------------------------------------------------------------------
Tabbed by: dead_kennedy


Standard Tuning

  Intro
e|--------------------------------------------------------------------|
B|--------------------------------------------------------------------|
G|--------------------------------------------------------------------|
D|--------------------------------------------------------------------| X4
A|---------555--------------------------------------------------------|
E|----0000------555-333-----------------------------------------------|

  Verse/Chorus
e|--------------------------------------------------------------------|
B|--------------------------------------------------------------------|
G|---------7----------------------------------------------------------|
D|---2-----7-----7-----5----------------------------------------------| X4
A|---2-----5-----7-----5----------------------------------------------|
E|---0-----------5-----3----------------------------------------------|

e|--------------------------------------------------------------------|
B|--------------------------------------------------------------------|
G|---9----------------------------------------------------------------|
D|---9---X8---9---X8--------------------------------------------------| X1
A|---7--------9-------------------------------------------------------|
E|------------7-------------------------------------------------------|

  Bridge
e|--------------------------------------------------------------------|
B|--------------------------------------------------------------------|
G|---9---------------7------------------------------------------------|
D|---9--X8---9-------7--X4--------------------------------------------|
A|---7-------9--X4---5------------------------------------------------|
E|-----------7--------------------------------------------------------|


You can work the pattern out yourselves, its not hard. It may be wrong but hey.

| /  slide up
| \  slide down
| h  hammer-on
| p  pull-off
| ~  vibrato
| +  harmonic
| x  Mute note
============================================================================    

Added On December 16th, 2013

SHARE

Comments

blog comments powered by Disqus

VERSIONS

ADVERTISEMENT