Von Tabs

Satanic Blood

1 versions

TAB

            Eb Tuning
|-----------------------------------------------------------------|
|-----------------------------------------------------------------|
|-----------------------------------------------------------------|
|-----------------------------------------------------------------|
|-9-9-9-9-9-9-9-9-9-9-9-9-9-9-9-9---------------------------------|
|---------------------------------8-8-8-8-8-8-8-8-9-9-9-9-9-9-9-9-|

End on...
|-----------------------------------------------|
|-----------------------------------------------|
|-----------------------------------------------|
|-------------------------------------------11--|
|-9-9-9-9-9-9-9-9-9-9-9-9-9-9-9-9-10----11--9---|
|---------------------------------8-----9-------|    

Added On December 16th, 2013

SHARE

Comments

blog comments powered by Disqus

ADVERTISEMENT