Wallflowers Tabs

Asleep At The Wheel

1 versions

TAB

            Asleep At The Wheel Tab by Wallflowers


Intro
|-----2-0h2p0—-4p2p0—-2p0--0------------5----------------|
|-----------------------------5--------------------------|
|-----------------------------6--------------------------|
|-----2--------2------2-------6-----------------2--------|
|-----------------------------4—-0h2p0-----0h2-----------|
|--0-----------------------------------------------------|

Verse
|-----2p0-—4p0—-2p0------------5-------------------------|
|--------------------5-----------------------------------|
|--------------------6-----------------------------------|
|-----2----2----2----6-----------------2-----------------|
|--------------------4—-0h2p0-----0h2--------------------|
|--0-----------------------------------------------------|    

Added On December 16th, 2013

SHARE

Comments

blog comments powered by Disqus

ADVERTISEMENT