Walt Disney Tabs

Its A Small World

1 versions

TAB

            -------------------------------------------------------------------------------
			     It's a small world - Walt Disney
-------------------------------------------------------------------------------
Tabbed by: Marc Woodford


Tuning: Standard

e|---------------------------------------------------------------------------|
B|----------0---------------------------------------------------------0------|
G|-------------0---2--0--0---------------2-----0------------------0-2---2-0--|
D|-------0------------------4--4------------4-----4--2--0--0-----0-----------|
A|--2-3----------------------------0-2-3----------------------2-3------------|
E|---------------------------------------------------------------------------|

e|---------------------------------------------------------------------------|
B|--------0--1--0---------1--0-----------------------------------------------|
G|-----2----------2-------------2---0----------------------------------------|
D|--2-----------------0------------------------------------------------------|
A|---------------------------------------------------------------------------|
E|---------------------------------------------------------------------------|    

Added On December 16th, 2013

SHARE

Comments

blog comments powered by Disqus

ADVERTISEMENT