Washya Tabs

1000 Days

1 versions

TAB

            -----------------------------------------------------------------------------
              1000 Days - Washya
-----------------------------------------------------------------------------
Tuning: Standard (EBGDAE)
Intro (play Fast)
E|-------------------------|
B|-------------------------|
G|-------------------------|
D|-------------------------|
A|-----------2-0-----------|
E|-0-3-0-3-0-----3-0-3p2-0-|
PM * * * * * * * * * *** * 

Verses
E|---------------------------|
B|---------------------------|
G|---------------------------|
D|---------------------------|
A|-----------2-0-----------2-|
E|-0-3-0-3-0-----3-0-6-5-3-0-|

Chorus
E|-------------------------|
B|-------------------------|
G|-------------------------|
D|---10-9-----------9-10-7-|
A|-2-8--7-7-10-9-12-7-8--5-|
E|-0------5-8--7-10--------|    

Added On December 16th, 2013

SHARE

Comments

blog comments powered by Disqus

ADVERTISEMENT