Washya Tabs

1000 Ways Too Die

1 versions

TAB

            -------------------------------------------------------------------------------
                             1000 ways too die - washya
-------------------------------------------------------------------------------
Tabbed by:
E-mail:

Tuning: Drop B (BF#BEG#C#)
Intro
B|-----------------------------------------------------------------------------------|
F#|----------------------------------------------------------------------------------|
B|-----------------------------------------------------------------------------------|
E|---------------------------------------------------------7h8p7h8p7-----------------|
G#|-5h6p5h6p5h8p5h8p5h6p5-----5h6p5h6p5h6p5h8p5h8p5hp5---------------6h7p6h7p6-7-----|
C#|-----------------------6-x--------------------------6-x---------------------7-77\\|x4

Verses
B|-------------------------------------------------------------------------|
F#|------------------------------------------------------------------------|
B|-------------------7-7-77------------------5-5-55------------------8-8-88|
E|-------------------------------------------------------------------------|
G#|-5-4-3-4-5-4-3-4-/5-5-55-2-1-0-1-2-1-0-1-/3-3-33-7-6-5-6-7-6-5-6-/6-6-66|
C#|-5-4-3-4-5-4-3-4---------2-1-0-1-2-1-0-1---------7-6-5-6-7-6-5-6--------|x4 
PM  * * * * * * * *         * * * * * * * *         * * * * * * * * 

Chorus
B|------------------------------------------------------------------------------------------|
F#|-----------------------------------------------------------------------------------------|
B|--88888888-77777777-----------------------------------------------------------------------|
E|---------------------------------------4--------------------------------------------------|
G#|-66666666-55555555-55555555-----3-4-5---5-4-3-1-1-1---------1-1-1---2-----4---6-4-3------|
C#|-------------------55555555-3-6---------------1-1-1-000-000-1-1-1-1---1/3---3-------4-3-1|    

Added On January 9th, 2015

SHARE

Comments

blog comments powered by Disqus

ADVERTISEMENT