Washya Tabs

A New Type Of War

1 versions

TAB

            -------------------------------------------------------------------------------
                             A New Type Of War - Washya
-------------------------------------------------------------------------------
Tabbed by:
E-mail:

Tuning: Drop C FADCGC)
Intro/verses
D|------------------------------------------------------------------------------|
A|------------------------------------------------------------------------------|
F|------------------------------------------------------------------------------|
C|------------------------------------------------------------------------88----|
G|---------4-5-7-9-7-6---------6-5-3-8-7-5--------------------------------66-66-|
C|-000-000-------------000-000-------------000-000-12-10-9-10-9-7-000-000----66-|
PM *** ***             *** ***             *** ***                *** ***

D|----------------------------------------------------------------------------------|
A|----------------------------------------------------------------------------------|
F|----------------------------------------------------------------------------------|
C|----------------------------------------------------------------------------------|
G|---------8-7-5-10-8-7---------10-8-7-12-10-9-----------------------------66-11-33-|
C|-000-000--------------000-000----------------000-000-5-6-5-3-5-3-000-000-66-11-33-|
PM *** ***              *** ***                *** ***             *** *** 

D|-------------------------------------------------------------------------------------------------|
A|-------------------------------------------------------------------------------------------------|
F|-------------------------------------------------------------------------------------------------|
C|---------------55---------------4-3-----------------3-------------------55---------------7-6-----|
G|---------66-11-33---------2-3-5-----4-----------------5-3---------66-11-33---------6-7-9-----7-6-|
C|-000-000-66-11----000-000-------------000-000-3-4-5-------000-000-66-11----000-000-------------6-|
PM *** ***          *** ***             *** ***             *** ***          *** ***

D|--------------------------------------------------------------|
A|--------------------------------------------------------------|
F|--------------------------------------------------------------|
C|-------------8-7------------------------8-7-------------------|
G|-----------------10-------------------------10-------66-11-33-|
C|-000-000-000--------7-000-000-3*-000-3*--------7-000-66-11-33-|
PM *** *** ***          *** ***    ***             ***

D|-------------------------------------------------------------------------------------------------------------|
A|-------------------------------------------------------------------------------------------------------------|
F|-------------------------------------------------------------------------------------------------------------|
C|---------------5h6p5-----------------------3h4p3-------------------------------------------------------------|
G|---------5-7-8-------8-5-------------3-5-6-------6-3----------------------12-11------------15-13-12----------|
C|-000-000-----------------000-111-000-----------------000-111-000-10-12-13-------12-000-000----------14-12-11-|
PM *** ***                 *** *** ***                 *** *** ***                   *** *** 

D|-----------------------------------------------------------------------------------------|
A|-----------------------------------------------------------------------------------------|
F|-----------------------------------------------------------------------------------------|
C|-----------------------------------------------------------------------------------------|
G|---------1-2-4-6-4-3-------------4-5-4-2---------8-7-5-----------------------666-111-333-|
C|-000-000-------------000-000-1-2---------000-000-------8-7-5-7-5-3-2-000-000-666-111-333-|
PM *** ***             *** ***             *** ***                     *** *** 

D|-------------------------------------------------------------------------|
A|-------------------------------------------------------------------------|
F|---------12-11---------------------12-11---------------------------------|
C|---------------12----13/15---------------12-11-10------------------------|
G|------------------11------------------------------11-----12-12-7-7-10-10-|
C|-000-000-------------------000-000-------------------000-12-12-7-7-10-10-|
PM *** ***                   *** ***                   *** 




************************************

| /   slide up
| \   slide down
| h   hammer-on
| p   pull-off
| ~   vibrato
| +   harmonic
| x   Mute note
| b   Bend
| pb  Pre-bend
| br  Bend release
| pbr Pre-bend release
| brb Bend release bend

************************************    

Added On February 3rd, 2015

SHARE

Comments

blog comments powered by Disqus

ADVERTISEMENT