Washya Tabs

Absolute

1 versions

TAB

            -------------------------------------------------------------------------------
                             Absolute - Washya
-------------------------------------------------------------------------------
Tabbed by:
E-mail:

Tuning: drop B (BF#BEG#C#)
intro 1 (slight distortion)
B|----------------------------------------------|
F#|---------------------------------------------|
B|----------------------------------------------|
E|----------------------------------------------|
G#|---------------------------------------------|
C#|-3-5-3-6-5-3-5--3-5-3-6-5-3-5--3-5-3-8-6-5-3-|x2
PM  * * * * * * *  * * * * * * *  * * * * * * * 

Part 2 (full distortion)
B|--------------------------------------------------|
F#|-------------------------------------------------|
B|--------------------------------------------------|
E|--------------------------------------------------|
G#|-12\-3-5-3-6-5-3-5--3-5-3-6-5-3-5--3-5-3-8-6-5-3-|
C#|-12\-3-5-3-6-5-3-5--3-5-3-6-5-3-5--3-5-3-8-6-5-3-|

verses
B|------------------------------------------------------------------|
F#|-----------------------------------------------------------------|
B|--------------7\-------------------8\--------------------------5\-|
E|--------------7\-------------------8\--------------------------5\-|
G#|-0-0-0-0-0-0-5\-0-3-0-6-1-1-1-1-1-6\-5-6-5-6-5-3-5--5-5-5-5-5-3\-|
C#|-0-0-0-0-0-0----0-3-0-6-1-1-1-1-1----5-6-5-6-5-3-5--5-5-5-5-5----|
PM  * * * * * *    *   *     * * * *                   * * * * * 

Chorus
B|------------------------------------------------------------------------------------|
F#|-----------------------------------------------------------------------------------|
B|--55555-33333----------------55555-77-6-66----------------------5-5-5---------------|
E|--55555-33333-3h6-6666-11111-55555-77-6-66-5-6-2-3-3333-------3-5-5-5---------------|
G#|-33333-11111-3h6-6666-11111-33333-55-4-44-5-6-2-3-3333-3---3---3-3-3-3-5-3-6-5-3-5-|
C#|-------------3h6-6666-11111---------------5-6-2-3-3333---3-----------3-5-3-6-5-3-5-|

************************************

| /   slide up
| \   slide down
| h   hammer-on
| p   pull-off
| ~   vibrato
| +   harmonic
| x   Mute note
| b   Bend
| pb  Pre-bend
| br  Bend release
| pbr Pre-bend release
| brb Bend release bend

************************************    

Added On January 27th, 2015

SHARE

Comments

blog comments powered by Disqus

ADVERTISEMENT