Washya Tabs

Addiction To The Little Green Pills

1 versions

TAB

            ------------------------------------------------------------------------------
 Addiction To The Little Green Pills - Washya
------------------------------------------------------------------------------
Tuning: Standard (EBGDAE)
Intro
E|------------------|
B|------------------|
G|------------3-7---|
D|-4-4-44-4-4-3-7-2-|
A|-4-4-44-4-4-1-5-2-|
E|-2-2-22-2-2-----0-|x2

Verses (Heavy Palm Mute)
E|--------------------------------------------------|
B|--------------------------------------------------|
G|----------33333333-77777777-----------------------|
D|-44444444-33333333-77777777-77777777-222-22-33-44-|
A|-44444444-11111111-55555555-77777777-222-22-33-44-|
E|-22222222-------------------55555555-000-00-11-22-|
PM ******** ******** ******** ******** *** ** ** ** 

Chorus (same riff unpalm muted) 
E|--------------------------------------------------|
B|--------------------------------------------------|
G|----------33333333-77777777-----------------------|
D|-44444444-33333333-77777777-77777777-222-22-33-44-|
A|-44444444-11111111-55555555-77777777-222-22-33-44-|
E|-22222222-------------------55555555-000-00-11-22-|


Guitar Solo
E|---------------------------------------------------8h10b-10b-12b---|
B|------3h4p3--------5b-7b-7h8p7--------9b-9h10p9h10-----------------|
G|-3b-5-------5p3h5~-------------9-7-9b------------------------------|
D|-------------------------------------------------------------------|
A|-------------------------------------------------------------------|
E|-------------------------------------------------------------------|

E|-----------------------13h15p13----13h15p13----13h15p13------------|
B|-12h13p12-----------14----------14----------14----------14p12h14~~-|
G|----------14p12h14~------------------------------------------------|
D|-------------------------------------------------------------------|
A|-------------------------------------------------------------------|
E|-------------------------------------------------------------------|

Verses (Heavy Palm Mute)
E|--------------------------------------------------|
B|--------------------------------------------------|
G|----------33333333-77777777-----------------------|
D|-44444444-33333333-77777777-77777777-222-22-33-44-|
A|-44444444-11111111-55555555-77777777-222-22-33-44-|
E|-22222222-------------------55555555-000-00-11-22-|
PM ******** ******** ******** ******** *** ** ** ** 

Chorus (same riff unpalm muted) 
E|--------------------------------------------------|
B|--------------------------------------------------|
G|----------33333333-77777777-----------------------|
D|-44444444-33333333-77777777-77777777-222-22-33-44-|
A|-44444444-11111111-55555555-77777777-222-22-33-44-|
E|-22222222-------------------55555555-000-00-11-22-|    

Added On December 16th, 2013

SHARE

Comments

blog comments powered by Disqus

ADVERTISEMENT