Washya Tabs

All In A Name

1 versions

TAB

            -----------------------------------------------------------------------------
            All In A Name - Washya
-----------------------------------------------------------------------------
Tuning: Drop C (DAFCGC)
Intro 
D|-------------------------|---------------------------|
A|-------6-------6-------4-|-------10-------10-------6-|
F|---7-------7-------7-----|---9--------9--------9-----|
C|---------5---5---5---5---|-7--------7--------7---7---|
G|-5---5-------------------|-----7--------7------------|
C|-------------------------|---------------------------|x10

Verses
D|-----------------------------------------------------------------|
A|-----------------------------------------------------------------|
F|-------------------------------------------------7-6-7-6-7-6-7-6-|
C|-6-5-6-5-6-5-6-5-----------------3-2-3-2-3-2-3-2-5-5-5-5-5-5-5-5-|
G|-4-4-4-4-4-4-4-4-5-4-5-4-5-4-5-4-0-0-0-0-0-0-0-0-----------------|
C|-----------------4-4-4-4-4-4-4-4---------------------------------|
PM * * * * * * * * * * * * * * * * * * * * * * * * * * * * * * * *  

Pre Chorus (Distortion)
D|---------------------------------|
A|---------------------------------|
F|-------8-------9-------8---------|
C|-------x-------x-------x---------|
G|-4h5p4-6-4h5p4-7-4h5p4-6-00------|
C|-4h5p4---4h5p4---4h5p4---00-2br0-|
PM *****   *****   *****   **  

Chorus (Distortion)
D|------------------------------------------------------------|
A|------------------------------------------------------------|
F|------------------------------------------------------------|
C|-1-1-0-333-3-1-0h1-333-3-1-11-3-1-0-11-333-/5-4-3-0-3-1-0-1-|
G|-1-1-0-333-3-1-0h1-333-3-1-11-3-1-0-11-333-/5-4-3-0-3-1-0-1-|
C|-1-1-0-333-3-1-0h1-333-3-1-11-3-1-0-11-333-/5-4-3-0-3-1-0-1-|

Break
D|------------------------------------------------------|
A|------------------------------------------------------|
F|------------------------------------------------------|
C|-6-3-1-0-6-5-3-0-3-1-0-1-4-3-5-6-5-3-1/6-3-00-5-3-1-0-|
G|-6-3-1-0-6-5-3-0-3-1-0-1-4-3-5-6-5-3-1/6-3-00-5-3-1-0-|
C|-6-3-1-0-6-5-3-0-3-1-0-1-4-3-5-6-5-3-1/6-3-00-5-3-1-0-|

Break 2(Palm mute)
D|------------------------------------------------------|
A|------------------------------------------------------|
F|------------------------------------------------------|
C|-6-3-1-0-6-5-3-0-3-1-0-1-4-3-5-6-5-3-1/6-3-00-5-3-1-0-|
G|-6-3-1-0-6-5-3-0-3-1-0-1-4-3-5-6-5-3-1/6-3-00-5-3-1-0-|
C|-6-3-1-0-6-5-3-0-3-1-0-1-4-3-5-6-5-3-1/6-3-00-5-3-1-0-|
PM * * * * * * * * * * * * * * * * * * * * * ** * * * 

Outro (fade out) (play quick)
D|---------------------------------------------|
A|---------------------------------------------|
F|---------------------------------------------|
C|---------------------------------------------|
G|---------------------------------------------|
C|-3-1-0-3-4-1-0-6-5-3-0-3-0-3-1-6-5-4-0-1-3-0-|    

Added On December 16th, 2013

SHARE

Comments

blog comments powered by Disqus

ADVERTISEMENT