Washya Tabs

All That Remains

1 versions

TAB

            ------------------------------------------------------------------------------
                     All That Remains - Washya
------------------------------------------------------------------------------

Tuning: Drop B (C#G#EBF#B) 

Intro
C#|----------------------|
G#|----------------------|
E|-----------------------|
B|--5-5h6----------------|
F#|-------7-7h8p5--------|
B|----------------3-3-55-| 

Verses
C#|-----------------------------------------------------------------|
G#|-----------------------------------------------------------------|
E|------------------------------------------------------------------|
B|----------79-----98----------------7777h10-7777h9-77h12-7-9-7-12~-|
F#|-----567-----------7--------------7777----7777---77----7---7-----|
B|--000--------000------9-7--000-000-7777----7777---77----7---7-----|
pm  ...        ...           ... ... ....    ....   ..    .   . 

Chorus
C#|------------------------------------------------------------------------|
G#|------------------------------------------------------------------------|
E|-------------------------------------------------------------------------|
B|--0230250323-222-5555-000-1-0-1-101010107777-4/5-------------------------|
F#|-0230250323-222-5555-000-1-0-1-101010107777-4/5-------------------------|
B|--0230250323-222-5555-000-1-0-1-101010107777-4/5-------------------------|    

Added On December 16th, 2013

SHARE

Comments

blog comments powered by Disqus

ADVERTISEMENT