Washya Tabs

Assembly Area

1 versions

TAB

            ------------------------------------------------------------------------------
                   Assembly Area - Washya
------------------------------------------------------------------------------
Tuning: Standard (EBGDAE)
Intro
E|-------------------------------|
B|-------------------------------|
G|----------9----------7---------|
D|----------9----------7---------|
A|----------7----------5-8-7-5-7-|
E|-0000-0-0---0000-0-0---6-5-3-5-|
PM **** * *   **** * * 

Verses
E|---------------------------------------------|
B|---------------------------------------------|
G|---------------------------------------------|
D|----2---2---22-------2-----2---2---22--------|
A|----2---2---22---2h3p2p0---2---2---22----3-5-|
E|-00---0---0----0---------0---0---0----00-1-3-|
PM **   *   *    *         *   *   *    ** 

Chorus
E|-----------------------------|
B|-----------------------------|
G|-----------------------------|
D|---5/8\7-----3-------5-------|
A|-2-3/6\5-3-5-1-2-3-4-3-7-8-5-|
E|-0-------1-3---0-1-2---5-6-3-|    

Added On December 16th, 2013

SHARE

Comments

blog comments powered by Disqus

ADVERTISEMENT