Washya Tabs

Atop A Mountain Gold

1 versions

TAB

            -----------------------------------------------------------------------------
             Atop A Mountain Gold - Washya
-----------------------------------------------------------------------------
Tuning: Standard (EBGDAE)
Intro
E|----------------------------------------------------------|
B|----------------------------------------------------------|
G|----------------------------------------------------------|
D|----------------------------------------------------------|
A|-------------12----12----12----12----10----10----12/14-14-|
E|-12-15-12-15----15----15----14----14----12----12-10/12-12-|
PM ** ** ** ** ** ** ** ** ** ** ** ** ** ** ** **  

Main Riff/Chorus 
E|-------------------------------------------------------------|
B|-------------------------------------------------------------|
G|-------------------------------------------------------------|
D|-----------------------------------------------------------3-|
A|---------1---1---0---0---3/4/5---------1---1---0---0---1h2---|
E|-0-3-0-3---3---3---3---3-1/2/3-0-3-0-3---3---3---3---3-------|
PM * * * * * * * * * * * *       * * * * * * * * * * * *  

Verses
E|-------------------------------------------------------------------|
B|-------------------------------------------------------------------|
G|-------------------------------------------------------------------|
D|-------------------------------------------------------------3---3-|
A|-------------------------5/6/7-------------------------3/4/5-1-3-1-|
E|-0-0-0-0-0-0-0-0-0-0-0-0-3/4/5-0-0-0-0-0-0-0-0-0-0-0-0-1/2/3---1---|
PM * * * * * * * * * * * *       * * * * * * * * * * * *       * * * 

Interlude 
E|----------------------------------------------------------------|
B|----------------------------------------------------------------|
G|----------------------------------------------------------------|
D|---------------7----------------5---------------3---------------|
A|-5----6----5/6-5--3----4----3/4-3-2----3----2h3-1-7777777-10975-|
E|-3-00-4-00-3/4----1-00-2-00-1/2---0-00-1-00-0h1---5555555-8-753-|
PM * ** * ** ***    * ** * ** ***   * ** * ** ***   ******* * ***    

Added On December 16th, 2013

SHARE

Comments

blog comments powered by Disqus

ADVERTISEMENT