Washya Tabs

Attack Of The Heretic

1 versions

TAB

            -------------------------------------------------------------------------------
                             Attack Of The Heretic - Washya
-------------------------------------------------------------------------------
Tabbed by:
E-mail:

Tuning: Drop B (BF#BEG#C#)
B|-------------------------------------------------------------------------------|
F#|------------------------------------------------------------------------------|
B|--5----------------------------------------------------------------------------|
E|--5-3-6----------------------------------------------------------------6-3-8-5-|
G#|-3-3-6----------------------------------------------------------------6-3-8-5-|
C#|---3-6-5p2222222222h5p22222222222h5p222222222222h6p2h5p22222222222222-6-3-8-5-|
PM          **********   ***********   ************       **************

B|-------------------------------------------------------------------------------------------------------------|
F#|------------------------------------------------------------------------------------------------------------|
B|-------------------------------------------------------------------------------------------------------------|
E|------------------------------------4-1-6-3-----------------------------------------------------2-1-0-1-3-2-1|
G#|-----------------------------------4-1-6-3-----------------------------------------------------2-1-0-1-3-2-1|
C#|-5p222222222222h6p2h5p222222222222-4-1-6-3-5p222222222222h5p2222222222222h6p2h5p22222222222222-2-1-0-1-3-2-1|
PM    ************       ************           ************   *************       ************** * * * * * * * 

Verses
B|-------------------------------------------------------------------------------|
F#|------------------------------------------------------------------------------|
B|-------------------------------------------------------------------------------|
E|-----------------3h4--------------------------------8-7-3-5-3h4p3---3----------|
G#|------------3h6------------------------------------8-7-3-5-------4---4p3------|
C#|-0000000000---------5h6p5h6p5-2h3p2h3p2-0000000000-8-7-3-5---------------1-3~-|
PM  **********                             **********

Chorus
B|------------------------------------------------------------------------------|
F#|-----------------------------------------------------------------------------|
B|------------------------------------------------------------------7\5---------|
E|----------7-----------7-5-------------5h8p5-------------7-6-------7\5-5/8-1-3-|
G#|---5-7-8---8-7---7-8-----7-8-5-----7-------6-7---8-7-5-----6-8---5\3-5/8-1-3-|
C#|-0-------------0---------------0-8-------------0---------------0-----5/8-1-3-|
 

************************************

| /   slide up
| \   slide down
| h   hammer-on
| p   pull-off
| ~   vibrato
| +   harmonic
| x   Mute note
| b   Bend
| pb  Pre-bend
| br  Bend release
| pbr Pre-bend release
| brb Bend release bend

************************************    

Added On January 28th, 2015

SHARE

Comments

blog comments powered by Disqus

ADVERTISEMENT