Washya Tabs

Barring

1 versions

TAB

            -----------------------------------------------------------------------------
                       Barring - Washya
-----------------------------------------------------------------------------
Tuning: Drop D (DADGBE)
Main Riff/Chorus
E|-------------------------------------|
B|-------------------------------------|
G|-------------------------------------|
D|-------------------------------------|
A|-0-0-6-3-0-3-6-3-0-0-3-6-5-0-3-6-3-0-|
D|-0-0-6-3-0-3-6-3-0-0-3-6-5-0-3-6-3-0-|
PM * * * * * * * * * * * * * * * * * *  

Verses
E|------------------------|
B|------------------------|
G|------------------------|
D|------------------------|
A|-0-3-00--0-3-00--0-3-00-|
D|-0-3-00--0-3-00--0-3-00-|

Chorus
E|-------------------------------------|
B|-------------------------------------|
G|-------------------------------------|
D|-------------------------------------|
A|-0-0-6-3-0-3-6-3-0-0-3-6-5-0-3-6-3-0-|
D|-0-0-6-3-0-3-6-3-0-0-3-6-5-0-3-6-3-0-|    

Added On December 16th, 2013

SHARE

Comments

blog comments powered by Disqus

ADVERTISEMENT