Washya Tabs

Beekeeper

1 versions

TAB

            Intro
e|-----------------------|
B|-----------------------|
G|-2/5--5/7--9/11--------|
D|----------------10h12~-|
A|-2/5--5/7--9/11--------|
D|-----------------------|

Verses
e|-------------------------------------------------|
B|---------9/11-----------------------------17\12~-|
G|-2/5----------13/15----------------15/17---------|
D|-----5/7----------------9/11-11/13---------------|
A|--------------------7/9--------------------------|
D|-------------------------------------------------|

Chorus
e|-----------------------------------------------------------|
B|-----------------------------------------------------------|
G|-----------------------------------------------------------|
D|---------2---2-4/5\4/5------------3---3-5/6\5/6------------|
A|-----2-4---4-----------5------3-5---5-----------6-3-5-3-0--|
D|-000-------------------5--000-------------------6-3-5-3-0--|
pm ...                      ...    

Added On December 16th, 2013

SHARE

Comments

blog comments powered by Disqus

ADVERTISEMENT