Washya Tabs

Big City

1 versions

TAB

            -----------------------------------------------------------------------------
                        Big City - Washya
-----------------------------------------------------------------------------
Tuning: Drop D (EBGDAD)
Intro 
E|-------------------------------------------|
B|-------------------------------------------|
G|-------------------------------------------|
D|-------------------------------------------|
A|-------------------------------------------|
D|-3-0-5-0-3-0-6-5-0-3-0-3-0-5-0-3-0-6-5-0-3-|x3

Main/Riff/verses
E|---------------------------------------------------|
B|---------------------------------------------------|
G|---------------------------------------------------|
D|---------------------------------------------------|
A|-5-3-0-3-000-5-3-0-3-0-3/6-5-3-0-3-000-5-3-0-3/666-|
D|-5-3-0-3-000-5-3-0-3-0-3/6-5-3-0-3-000-5-3-0-3/666-|

Chorus
E|---------------------------------|
B|---------------------------------|
G|---------------------101010\9-99-|
D|------555-3-333------------------|
A|-3-33-333-1-111-1111-8-8-8-\7-77-|
D|-3-33-----------1111-------------|    

Added On December 16th, 2013

SHARE

Comments

blog comments powered by Disqus

ADVERTISEMENT