Washya Tabs

Black Cold

1 versions

TAB

            -------------------------------------------------------------------------------
                             Black Cold - Washya
-------------------------------------------------------------------------------
Tabbed by:
E-mail:

Tuning: Drop B (BF#BEG#C#)
intro
B|-------------------------------------------------|
F#|------------------------------------------------|
B|-------------------------------------------------|
E|-------------------------------------------------|
G#|-1-00-3-00-1-00-3-00-3-0-4-00-1-0-3-0-1-00-3-00-|
C#|------------------------------------------------|x3
PM  * ** * ** * ** * ** * * * ** * * * * * ** * ** 

B|-------------------------------------------------|
F#|------------------------------------------------|
B|-------------------------------------------------|
E|-------------------------------------------------|
G#|-1-00-3-00-1-00-3-00-3-0-4-00-1-0-3-0-1-00-3-00-|
C#|-1-00-3-00-1-00-3-00-3-0-4-00-1-0-3-0-1-00-3-00-|

B|----------------------------------------------------------------------------|
F#|---------------------------------------------------------------------------|
B|----------------------------------------------------------------------------|
E|------------3p2----------3p2------------------------------3-----------------|
G#|-------------------------------------------3---------------6-5-3-3-3\1-1-1-|
C#|-0-0-0-3h5-----3--0-3h5-----3-1--0-0-0-3h5----6-5-3--3h5-------3-3-3\1-1-1-|
PM  * * * ***     *  * ***     * *  * * * ***    * * *  ***   

Verses
B|------------------------------------------------------------------------------------------------------------|
F#|-----------------------------------------------------------------------------------------------------------|
B|------------------------------------------------------------------------------------------------------------|
E|---------------------------------------7-7-7-7------------------------------3-3-3-3-------------------------|
G#|-------------4p3-1/3----------5p4-----5-5-5-5--------------1-0----------1--1-1-1-1-/555444--------7-7-7-7\-|
C#|-0-0-0-0-5h6-----1/3--0-0-0-0-----7p6----------0-0-0-0-1-3-----3-1--1h3--------------------555444-7-7-7-7\-|
PM  * * * *              * * * *                  * * * *                                     


Chorus
B|-----------------------------------------------------------------------------------------------------------|
F#|----------------------------------------------------------------------------------------------------------|
B|-----------------------------------------------------------------------------------------------------------|
E|---------------------------------------5-5-5-5-5-5-----------------------------6-6-6-6-6-6\3-3-3-----------|
G#|-12\-10-10-10-10-10-10-10-7-7-7-7-7-7-3-3-3-3-3-3-1-1-1-1-1-1-3-1/6-6-6-6-6-6-4-4-4-4-4-4\1-1-1-4-1-0-5-6-|
C#|-12\-10-10-10-10-10-10-10-7-7-7-7-7-7-------------1-1-1-1-1-1-3-1/6-6-6-6-6-6-------------------4-1-0-5-6-|
************************************

| /   slide up
| \   slide down
| h   hammer-on
| p   pull-off
| ~   vibrato
| +   harmonic
| x   Mute note
| b   Bend
| pb  Pre-bend
| br  Bend release
| pbr Pre-bend release
| brb Bend release bend

************************************    

Added On February 3rd, 2015

SHARE

Comments

blog comments powered by Disqus

ADVERTISEMENT