Washya Tabs

Black Reign

1 versions

TAB

            -----------------------------------------------------------------------------
             Black Reign - Washya
-----------------------------------------------------------------------------
Tuning: Drop D (DADGBE)
Intro
E|-------------------------------|
B|-------------------------------|
G|-------------------------------|
D|-----------------4-3-----------|
A|-6-5-1-2-6-5-4-2-2-1-1-2-6-5-3-|
D|-6-5-1-2-6-5-4-2-----1-2-6-5-3-|

Verses
E|-----------------------------------|
B|-----------------------------------|
G|-----------------------------------|
D|-----5-----------------------------|
A|-5h6---6p5-5h6p5---------5h6h8-8\5-|
D|-----------------6p5p3h5-------8\5-|
PM *** * *** **** ******** ***** 

Chorus
E|---------------------------------------------------|
B|---------------------------------------------------|
G|-777777\555555---------------777/9-99--------------|
D|---------------------------------------------------|
A|-555555\333333-111111/555555-555/7-77-7777h8-5h7\3-|
D|---------------111111/555555----------7777h8-5h7\3-|    

Added On December 16th, 2013

SHARE

Comments

blog comments powered by Disqus

ADVERTISEMENT