Washya Tabs

Blooded Script

1 versions

TAB

            -------------------------------------------------------------------------------
                             Blooded Script  - Washya
-------------------------------------------------------------------------------
Tabbed by:
E-mail:

Tuning: DROP C (DAFCGC)
INTRO
D|-------------------------------------------------------------------------------------|
A|-------------------------------------------------------------------------------------|
F|-------------------------------------------------------------------------------------|
C|-------------------------------------------------------------------------------------|
G|-------------------------------------------------------------------------------------|
C|-1p0-3p0-4p0-1p0-3p0-4p3p1h3-1p0-3p0-4p0-1p0-3p0-4p3p1h3-1p0-3p0-4p0-1p0-1p0-4p3p1p0-|x2
PM *** *** *** *** *** ******* *** *** *** *** *** ******* *** *** *** *** *** ******* 

Part 2
D|----------------------------------------------------------------------------------|
A|----------------------------------------------------------------------------------|
F|----------------------------------------------------------------------------------|
C|-------------------------------------------------------------------------------33-|
G|---2-1---1-2-1---1-2-1---2-1---1-2---1-2-1---1-2-1---2-1---1-2-1---1---1-2-1---11-|
C|-0-2-1-0-1-2-1-0-1-2-1-0-2-1-0-1-2-0-1-2-1-0-1-2-1-0-2-1-0-1-2-1-0-1-0-1-2-1-0----|x2
PM * * * * * * * * * * * * * * * * * * * * * * * * * * * * * * * * * * * * * * * 

Verses
D|--------------------------------------------------------------------------------------------------|
A|--------------------------------------------------------------------------------------------------|
F|--------------------------------------------------------------------------------------------------|
C|-----------8\7-----------------------------------------6\5-------------------10\9---------------5-|
G|-00-3-2-00-6\5-00-3-2-00-6-5-00-1-0-1-1/4-3-00-1-0-1-1-4\3-4-3-1-0-55/8-7-55-8-\7-8-7-4-5-7-2-3-3-|
C|-00-3-2-00-----00-3-2-00-6-5-00-1-0-1-1/4-3-00-1-0-1-1-----4-3-1-0-55/8-7-55------8-7-4-5-7-2-3---|
PM **     **     **     **     **   *         **   *               *                       

Chorus
D|--------------------------------------------------------------------------------------------------|
A|---------------------------------------8~---------------------------------------6~----------------|
F|--------------8\7-------------/9-6---6-----------------9\8-------------/7-4---4-------------------|
C|-----------------------------------7----------------------------------------5---------------------|
G|-2222-22-2222-----2222-22-333-------------3333-33-3333-----3333-33-111-------------------1--------|
C|-2222-22-2222-----2222-22-333-------------3333-33-3333-----3333-33-111-------------0-1-0---3-1-0-1|
PM **    *   **     **    *   *             **    *   **     **    *   *             * * * * * * * *  
************************************

| /   slide up
| \   slide down
| h   hammer-on
| p   pull-off
| ~   vibrato
| +   harmonic
| x   Mute note
| b   Bend
| pb  Pre-bend
| br  Bend release
| pbr Pre-bend release
| brb Bend release bend

************************************    

Added On February 4th, 2015

SHARE

Comments

blog comments powered by Disqus

ADVERTISEMENT