Washya Tabs

Bonefide Contender

1 versions

TAB

            -----------------------------------------------------------------------------
                      Bonafide Contender - Washya
----------------------------------------------------------------------------
Tuning: Drop D (DADGBE)
Intro (Play VERY Fast)
E|---------------------------------------|
B|---------------------------------------|
G|---------------------------------------|
D|---------------------------------------|
A|---------------------------------------|
D|-0003000600050030303000030006000503030-|
PM *************************************

Part 2/Main Riff/Chorus/Heavy 
E|------------------------------------------------------------------|
B|------------------------------------------------------------------|
G|------------------------------------------------------------------|
D|------------------------------------------------------------------|
A|-0-3-1-0-1-0-0-0--0-3-1-0-1-0-0-0--0-3-1-0-1-0-0-0--0-6666666-555-|
D|-0-3-1-0-1-0-0-0--0-3-1-0-1-0-0-0--0-3-1-0-1-0-0-0--0-6666666-555-|

Verses
E|-----------------------------------------------------------------------|
B|-----------------------------------------------------------------------|
G|-----------------------------------------------------------------------|
D|-5/7/5/7-----3/5/3/5--------------------9/10\9/10----------------------|
A|-3/5/3/5-555-1/3/1/3-333--0-1-0-1-0-0-0-7/8-\7/8--10101010/5555--------|
D|---------555---------333--0-1-0-1-0-0-0-----------10101010/5555-0h3bp0-|    

Added On December 16th, 2013

SHARE

Comments

blog comments powered by Disqus

ADVERTISEMENT