Washya Tabs

Break These Chains

1 versions

TAB

            -------------------------------------------------------------------------------
                             Break These Chains - Washya
-------------------------------------------------------------------------------
Tabbed by:
E-mail:

Tuning: Drop A (AEADF#B)
Intro 
A|-------------------|
E|-------------------|
A|--------4/5--------|
D|--7~-5~-4/5-6-5-1-3|
F#|-7~-5~-2/3-6-5-1-3|
B|--5~-5~-----6-5-1-3|x3

Verses
A|------------------------------------------------------------------------------------------------|
E|------------------------------------------------------------------------------------------------|
A|------------------------------------------------------------------------------------------------|
D|------------------------------------------------------------------------------------------------|
F#|------------------------------------------3p2p0------------------------------------------------|
B|--2p1p0-00000000000-4p3p0-0000000000-2p1p0-------2p1p0h2p1p0-00000000000-2p1p0-00000000000-4p3p0|

A|---------------------------------------------------------------------------------------------------------|
E|---------------------------------------------------------------------------------------------------------|
A|---------------------------------------------------------------------------------------------------------|
D|---------------------------------------------------------------------------------------------------------|
F#|------------------3p2p0------------------------------------------------------------------5p3p2----------|
B|--0000000000-2p1p0-------2p1p0h2p1p0-0000000000-2p1p0-00000000000-4p3p0-00000000000-2p1p0-------3p2h5p3p2|

A|----------------------------------------------------------------|
E|----------------------------------------------------------------|
A|----------------------------------------------------------------|
D|--------------------------------------------------8-------------|
F#|---------------------------8---------------8-------6p5---------|
B|--000000000-8p6p5-000000000---6p5-000000000---6p5-------3-1-33~-|

Chorus
A|---------------------------------------------------------------------------------------------------|
E|---------------------------------------------------------------------------------------------------|
A|---------------------------------------------------------------------------------------------------|
D|---------------------------------------------------------------------------------------------------|
F#|--------------1h3p1-----3---------666666-555555-0-1-1-0-1--0-1-1-0-1-----1h3p1-------111111-333333|
B|--3-33-1-3-1-3-------3/6---5/6p5h6-666666-555555-0-1-1-0-1--0-1-1-0-1-1-3-------4-3-1-111111-333333|

Tuning: Drop A (AEADF#B)
Intro 
A|-------------------|
E|-------------------|
A|--------4/5--------|
D|--7~-5~-4/5-6-5-1-3|
F#|-7~-5~-2/3-6-5-1-3|
B|--5~-5~-----6-5-1-3|x3

Verses
A|------------------------------------------------------------------------------------------------|
E|------------------------------------------------------------------------------------------------|
A|------------------------------------------------------------------------------------------------|
D|------------------------------------------------------------------------------------------------|
F#|------------------------------------------3p2p0------------------------------------------------|
B|--2p1p0-00000000000-4p3p0-0000000000-2p1p0-------2p1p0h2p1p0-00000000000-2p1p0-00000000000-4p3p0|

A|---------------------------------------------------------------------------------------------------------|
E|---------------------------------------------------------------------------------------------------------|
A|---------------------------------------------------------------------------------------------------------|
D|---------------------------------------------------------------------------------------------------------|
F#|------------------3p2p0------------------------------------------------------------------5p3p2----------|
B|--0000000000-2p1p0-------2p1p0h2p1p0-0000000000-2p1p0-00000000000-4p3p0-00000000000-2p1p0-------3p2h5p3p2|

A|----------------------------------------------------------------|
E|----------------------------------------------------------------|
A|----------------------------------------------------------------|
D|--------------------------------------------------8-------------|
F#|---------------------------8---------------8-------6p5---------|
B|--000000000-8p6p5-000000000---6p5-000000000---6p5-------3-1-33~-|

Chorus
A|---------------------------------------------------------------------------------------------------|
E|---------------------------------------------------------------------------------------------------|
A|---------------------------------------------------------------------------------------------------|
D|---------------------------------------------------------------------------------------------------|
F#|--------------1h3p1-----3---------666666-555555-0-1-1-0-1--0-1-1-0-1-----1h3p1-------111111-333333|
B|--3-33-1-3-1-3-------3/6---5/6p5h6-666666-555555-0-1-1-0-1--0-1-1-0-1-1-3-------4-3-1-111111-333333|



************************************

| /   slide up
| \   slide down
| h   hammer-on
| p   pull-off
| ~   vibrato
| +   harmonic
| x   Mute note
| b   Bend
| pb  Pre-bend
| br  Bend release
| pbr Pre-bend release
| brb Bend release bend

************************************    

Added On January 10th, 2015

SHARE

Comments

blog comments powered by Disqus

ADVERTISEMENT