Washya Tabs

Breathe

1 versions

TAB

            -------------------------------------------------------------------------------
			     Breathe - Band Name
-------------------------------------------------------------------------------
Tabbed by:
Email:

Tuning: Standard
Intro (Play Fast)
e|------------------|
B|------------------|
G|------------------|
D|------------------|
A|---4---4---4-5-4--|
E|-2---2---2--------| x16
pm . . . . . .   

Verses
e|----0-------3---|
B|------0---3-----|
G|--------0-----0-|
D|----------------|
A|-2--------------|
E|-0--------------|


Chorus (Play Fast)
e|-----------------|
B|-----------------|
G|-----------------|
D|-----------------|
A|-2-3-2-3-2-3-4-3-|
E|-0-1-0-1-0-1-2-1-|
pm .   .   .    

Added On December 16th, 2013

SHARE

Comments

blog comments powered by Disqus

ADVERTISEMENT