Washya Tabs

Bring Your Guns

1 versions

TAB

            -------------------------------------------------------------------------------
                            Bring Your guns - Washya 
-------------------------------------------------------------------------------
Tabbed by:
E-mail:

Tuning: DROP B (BF#BEG#C#)
Intro
B|--------------------------------------------|
F#|-------------------------------------------|
B|--------------------------------------------|
E|--------------------------------------------|
G#|----------10-------------------------------|
C#|-13b-/7-8----13b-/7-8-10-/13b-0-00-13b-0-00|x4

Intro 2
B|-----------------------------------------------|
F#|----------------------------------------------|
B|-----------------------------------------------|
E|-----------------------------------------------|
G#|-0-00-3-4-3-0-00-3-4-3-0-00--0-1-0--0-00-0-1-0|
C#|-0-00-3-4-3-0-00-3-4-3-0-00--0-1-0--0-00-0-1-0|x2

Verses
B|-----------------------------------------------------14-13-12-------|
F#|-------------------------------------------------------------13-12\|
B|--/<16-12------------12-10-9-----/<18-14---/12-14-15----------------|
E|---------5>--/7-8-10---------10---------7>--------------------------|
G#|-------------------------------------------------------------------|
C#|-------------------------------------------------------------------|
  < TREMELO PICK >               

Chorus
B|---------------------------------------------------------------------------------------|
F#|--------------------------------------------------------------------------------------|
B|---------------------------------------------------------------------------------------|
E|----------------------------------7/8\7------7/8\7----------------------------11/12\11-|
G#|------0-00-1-2-1-0-00-1-2-1-0-00-5/6\5-0-00-5/6\5-0-00-3-4-3-0-00-3-4-3-0-00-9-/10\9--|
C#|-/12\-0-00-1-2-1-0-00-1-2-1-0-00-------0-00-------0-00-3-4-3-0-00-3-4-3-0-00----------|

B|-----------------------------------------------------------------------------------------------------|
F#|----------------------------------------------------------------------------------------------------|
B|-----------------------------------------------------------------------------------------------------|
E|-----------------------------------------------------------------------------------------------------|
G#|-----------------15h16p15----------15h16p15-----------3-33-5-6-5-3-33-5-6-5-------------------------|
C#|-/13b~\-13-13-13----------13-13-13----------13-13-13-\3-33-5-6-5-3-33-5-6-5-555555444444888888777777|
PM         XX XX XX          XX XX XX          XX XX XX                        XXXXXXXXXXXXXXXXXXXXXXXX

************************************

| /   slide up
| \   slide down
| h   hammer-on
| p   pull-off
| ~   vibrato
| +   harmonic
| x   Mute note
| b   Bend
| pb  Pre-bend
| br  Bend release
| pbr Pre-bend release
| brb Bend release bend

************************************    

Added On January 24th, 2015

SHARE

Comments

blog comments powered by Disqus

ADVERTISEMENT