Washya Tabs

Caffeine And Nicotine

1 versions

TAB

            -------------------------------------------------------------------------------
                            Caffeine And Nicotine - Washya
-------------------------------------------------------------------------------
Tabbed by:
E-mail:

Tuning: Drop B (BF#BEG#C#)
intro/Verses
B|-----------------------------------------------------------------------------------------------|
F#|----------------------------------------------------------------------------------------------|
B|-----------------------------------------------------------------------------------------------|
E|-----------------------------------------------------------------------------------------------|
G#|--12\----------------------1------------------------------2-----------------------------------|
C#|-/12\-00000000000000-0-1-2---2-1-0-1-00000000000000-0-3-4---4-3-1-3-1--0000-0000-4-3-1-4-3-1-0|
PM       **************                 **************                    **** **** 

B|-----------------------------------------------------------------------------|
F#|----------------------------------------------------------------------------|
B|-----------------------------------------------------------------------------|
E|-----------------------------------------------------------------------------|
G#|--------------------1-0--------------------------------------------1-0------|
C#|-00000000000000-1-2-----3-4-1-00000000000000-4-3-0--4-3-0--1-4-1-4-----3-4-1|
PM  **************               **************               * * * * 

B|-------------------------------------------------------------------------------|
F#|------------------------------------------------------------------------------|
B|-------------------------------------------------------------------------------|
E|-------------------------------------------------------------------------------|
G#|------------------------------------2-----------------------1-0--------------1|
C#|-00000000000000-2-1-0-3-4-1-2-1-0-1---00000000000000--3-1-0-----3--3-1-0-3-4--|
PM  **************                       **************  

Chorus
B|-------------------------------------------------------------------------------------|
F#|------------------------------------------------------------------------------------|
B|-------------------------------------------------------------------------------------|
E|--------1~----------------------------1-0---------------------------1----------------|
G#|-0-1-2---2-1-xxx-0-1-0-/5-4-2--0-1-0-----4-5--0-2-1-/-7-6-5--0-1-2---4-3------------|
C#|-0-1-2---2-1-xxx-0-1-0-/5-4-2--0-1-0-----4-5--0-2-1-/-7-6-5--0-1-2---4-3-1-3-1-3-1-0|
PM                                                                          * * * * * 
************************************

| /   slide up
| \   slide down
| h   hammer-on
| p   pull-off
| ~   vibrato
| +   harmonic
| x   Mute note
| b   Bend
| pb  Pre-bend
| br  Bend release
| pbr Pre-bend release
| brb Bend release bend

************************************    

Added On December 30th, 2014

SHARE

Comments

blog comments powered by Disqus

ADVERTISEMENT