Washya Tabs

Call Of The Wild

1 versions

TAB

            -----------------------------------------------------------------------------
			     Call Of The Wild - Washya
-----------------------------------------------------------------------------
Tabbed by:
Email:

Tuning: Standard (ebgDAE) 
Intro
e|-------0-----0-----0------3-------0-------0-----3~-|
B|---------3-----3-----3------3---3---3---3---3---3~-|
G|-----0-----0-----0-----0------0-------2-------0----|
D|---4-----------------------------------------------|
A|-2-------------------------------------------------|
E|---------------------------------------------------| 

Verses
e|-----0---------------0---3------------3---3-0-----3-|
B|-------3-----3---------0-----3----------3-------3---|
G|---------0-----0-----------0--------0---------0-----|
D|----------------------------------------------------|
A|---2---------------2--------------4-----------------|
E|-0---------2-----3--------------2-------------------|

Chorus
e|-------------------------------------------------------------------|
B|-------------------------------------------------------------------|
G|-------------------------------------------------------------------|
D|-------------------------------------------------------------------|
A|-333-344-333-344-333-3554-44-5-2-5-4-3-333-344-333-0-1-------2-1-2-|
E|-111-122-111-122-111-1332-22-3-0-3-2-1-111-122-111-----0-3-4-----0-|
pm                                                   . . . . . . . .    

Added On December 16th, 2013

SHARE

Comments

blog comments powered by Disqus

ADVERTISEMENT