Washya Tabs

City Slammin

1 versions

TAB

            -------------------------------------------------------------------------------
             City Slammin - Washya
-------------------------------------------------------------------------------
Tuning: Drop D (DADGBE)
Intro
E|-------------------------------------------------|
B|-------------------------------------------------|
G|-------------------------------------------------|
D|---------------------------------55-5-55-55-55-5-|
A|-55-5-55-55-55-5\11-1-11-11-11-1-33-3-33-33-33-3-|
D|-55-5-55-55-55-5\11-1-11-11-11-1-----------------|

Verses
E|-------------------------------------------------|
B|-------------------------------------------------|
G|-------------------------------------------------|
D|-------------------------------------------------|
A|-11-1-11-11-11-1/44-4-44-44-44-4\33-3-33-33-33-3-|
D|-11-1-11-11-11-1/44-4-44-44-44-4\33-3-33-33-33-3-|
PM ** * ** ** ** * ** * ** ** ** * ** * ** ** ** * 

Chorus
E|---------------------------------------------------------------------|
B|---------------------------------------------------------------------|
G|---------------------------------------------------------------------|
D|-------------------333-33-3/555---------------7/8-7/8-7/8-33333------|
A|-55555555\11111111-111-11-1/333-5555-555-55-5-5/6-5/6-5/6-11111-3333-|
D|-55555555\11111111--------------5555-555-55-5-------------------3333-|    

Added On December 16th, 2013

SHARE

Comments

blog comments powered by Disqus

ADVERTISEMENT