Washya Tabs

Cocaine

1 versions

TAB

            -----------------------------------------------------------------------------
                    Eric Clapton Classic COCAINE - Washya
-----------------------------------------------------------------------------
Tuning: Standard (EBGDAE) 
Intro/Main Riff                       (My own touch)
E|---------------------------------| |--------------------------------|
B|---------------------------------| |--------------------------------|
G|-99-7-9-------7b-99-7-9-------7b-| |-99-7-9-------7b-9p7------------|
D|-99-7-9-----9p7b-99-7-9-----9p7b-| |-99-7-9-----9p7b-----9p8p7------|
A|-77-5-7-7/9------77-5-7-7/9------| |-77-5-7-7/9----------------10\\-|
E|---------------------------------| |--------------------------------|

Chorus "she don't lie......."
E|---------|
B|---------|
G|-9-7-5-4-|
D|-9-7-5-4-|
A|-7-5-3-2-|
E|---------|    

Added On December 16th, 2013

SHARE

Comments

blog comments powered by Disqus

ADVERTISEMENT