Washya Tabs

Cold Reign

1 versions

TAB

            -------------------------------------------------------------------------------
                           Cold Reign - Washya
-------------------------------------------------------------------------------
Tabbed by:
E-mail:

Tuning: Drop B (BF#BEG#C#)
B|-------------------------------------|
F#|----15----15----15----15------------|
B|-----------------------------15h16p15|
E|--12----12----12----12---------------|
G#|-------------------------12---------|
C#|------------------------------------|x4

part 2
B|-------------------------------------------------12--------------------------------------------------9------|
F#|---12----12----12----12----------------------------13--------9----9----9----9-------------------------10---|
B|----------------------------12h15p14----12h15p14-------14-------------------------9h12p11----9h12p11------11|
E|-14----14----14----14-------------------------------------/11---11---11---11--------------------------------|
G#|------------------------14----------14----------------------------------------11---------11----------------|
C#|-----------------------------------------------------------------------------------------------------------|

B|-----------------------------------6------------------------------------------------3----|
F#|----6---6---6---6-------------------7------3---3-------3---3-----3-------------------4--|
B|---------------------6h9p8---6h9p8-----8------------5-----------3-----3h6p5---3h6p5-----5|
E|--/8---8---8---8-------------------------/5---5---5---5---5---5--------------------------|
G#|------------------8-------8----------------------------------------5-------5------------|
C#|----------------------------------------------------------------------------------------|

B|-----------------------------------0----|
F#|---0---0---0---0--------------------1--|
B|--------------------0h3p2----0h3p2-----2|
E|--2---2---2---2-------------------------|
G#|-----------------2-------2-------------|
C#|---------------------------------------|

Part 3
B|---------5--------------2------------------------------------0------|
F#|------6---6----------3---3--------------------------------1---3----|
B|----/7-------4/6---/4-------1/3--------------------------2-------2-2|
E|--0--------------3--------------0------4--------4-5----------------2|
G#|-0--------------3--------------0--------4------4-5----------------0|
C#|-0--------------3--------------0-2222-----2222-4-5-1111------------|
PM                                  XXXX     XXXX     XXXX

Verses
B|--------------------------------------------------------------------|
F#|-------------------------------------------------------------------|
B|--------------------------------------------------------------------|
E|--------------------------------------------------------------------|
G#|------0-----------0-------------3-------11-1----1-----5--5------5-5|
C#|-00-0-0-00-0-0-00-0-0-000-0-3-3-33-3-1-111-1-11-1-111-5-55-5-5-5555|
PM  XX     XX     XX      X      X  X   X XXX    X    XX    X X   X X

B|--------------------------------------|
F#|-------------------------------------|
B|--8\7--8\7--10\9--8\7/10\8------------|
E|--------------------------------------|
G#|-6\5--6\5--8-\7--6\5/8-\6-6-5-0-1-0-3|
C#|--------------------------6-5-0-1-0-3|

B|------------------------------------------------------------------|
F#|-----------------------------------------------------------------|
B|-------------------------------------------------------10\8/9-----|
E|---88886666-10-10-10-10-9999-5555566665555666688888888------------|
G#|------------------------------------------------------8-\6/7-----|
C#|-------------------------------------------------------------7777|
PM   XXXXXXXX XX XX XX XX XXXX XXXXXXXXXXXXXXXXXXXXXXXXX        XXXX

Chorus
B|------------------------------------------------------------------------|
F#|-----------------------------------------------------------------------|
B|-----------77777777-10-10-10-10-10-10-10--------------------------------|
E|--11111111------------------------------88888888-55555555-6-5-0-111-33-6|
G#|-11111111-55555555-8--8--8--8--8--8--8-88888888-55555555-6-5-0-111-33-6|
C#|-11111111------------------------------88888888-55555555-6-5-0-111-33-6|
************************************

| /   slide up
| \   slide down
| h   hammer-on
| p   pull-off
| ~   vibrato
| +   harmonic
| x   Mute note
| b   Bend
| pb  Pre-bend
| br  Bend release
| pbr Pre-bend release
| brb Bend release bend

************************************    

Added On January 20th, 2015

SHARE

Comments

blog comments powered by Disqus

ADVERTISEMENT