Washya Tabs

Cradle Too Heaven

1 versions

TAB

            -----------------------------------------------------------------------------
                       Cradle Too Heaven - Washya
-----------------------------------------------------------------------------
Tuning: Standard (EBGDAE)
Intro
E|-------------------|
B|-1-11-11-1-1-11-11-|
G|-2-22-22-2-2-22-22-|
D|-2-22-22-2-2-22-22-|
A|-------------------|
E|-------------------|x3

Part 2 
E|--------------------------------------|
B|--------------------------------------|
G|--------------------------------------|
D|-777777777777-55555555555-22222222222-|
A|-777777777777-55555555555-22222222222-|
E|-555555555555-33333333333-00000000000-|

Lead 1
E|--------------------------------------|
B|--------------------------------------|
G|---9---7---5---3-------9---7---5\7/3~-|
D|-------------------2------------------|
A|-7---5---3---1-----2-7---5---3--------|
E|-----------------3-0------------------|

Chorus
E|------------------------------------------------------------------|
B|------------------------------------------------------------------|
G|------------------------------------------------------------------|
D|-7--7-88-5/1010101010-77777-55555---8---7---5~-555-55-333-33-22-2-|
A|-7--7-88-5/1010101010-77777-55555-5---5---5----555-55-333-33-22-2-|
E|-5--5-66-3/8-8-8-8-8--55555-33333--------------333-33-111-11-00-0-|

Lead solo
E|--------------------------------------------------------------|
B|-----8---8---6-----------------------------------11----8------|
G|-/-7---6---4---4----9b-9b-99b-9b-9b-9b-99b-9b-/9----/7---9\5~-|
D|-----------------6~-------------------------------------------|
A|--------------------------------------------------------------|
E|--------------------------------------------------------------|    

Added On December 16th, 2013

SHARE

Comments

blog comments powered by Disqus

ADVERTISEMENT