Washya Tabs

Cronos

1 versions

TAB

            -----------------------------------------------------------------------------
                           Cronos - Washya
-----------------------------------------------------------------------------
Tuning: Standard (EBGDAE)
Intro
E|-----------------------------------------|
B|-----------------------------------------|
G|-----------------------------------------|
D|-7-77-77-7-7p5-7-77-77-7-5h7p5-7-77-77-7-|
A|-5-55-55-5-----5-55-55-5-------5-55-55-5-|
E|-----------------------------------------|

Verses
E|---2-------2-----------3-------3/5\3---------------|
B|-----3---3---3-----------3-----3/5\3---------------|
G|-------2-------2---------------------4-------------|
D|---------------------------------------5-7-77-77-7-|
A|-------------------2---------2-----------5-55-55-5-|
E|-0---------------0---3-----3-----------------------|

Chorus
E|---------------------------------------------|
B|---------------------------------------------|
G|---------------------------------------------|
D|-----------9-/10\-9-----------9-10-----------|
A|-5-55-55-5-7-/8-\-7-5-55-55-5-7--8-7-77-55-2-|
E|-3-33-33-3----------3-33-33-3------5-55-33-0-|    

Added On December 16th, 2013

SHARE

Comments

blog comments powered by Disqus

ADVERTISEMENT