Washya Tabs

Curse Of The Tomb

1 versions

TAB

            -------------------------------------------------------------------------------
                             Curse Of The Tomb - Washya
-------------------------------------------------------------------------------
Tabbed by:
E-mail:

Tuning: drop C (DAFCGC)
intro/Chorus (guitar 1)
D|------------------------------------------------------------------------------------------------|
A|--------9-------------10------------------------------------6---------7-------------------------|
F|---10-----10-----10------10---10-----------10-----------7-----7---7-----7---7---------7-------2-|
C|-8----8------8-8----8-------8----8-11-10-8----8-11-10\5---5-----5---5-----5---5-8-7-5---5-8-7\2-|
G|----------------------------------------------------------------------------------------------2-|
C|------------------------------------------------------------------------------------------------|
PM *    *      * *    *       *    * ** ** *    * ** ** *   *     *   *     *   * * * *   * * * 

Intro/Chorus (guitar 2
D|-------------------------------------------------------|
A|-------------------------------------------------------|
F|------10---8------8---6------6---2------2-----0------0-|
C|------8----6------6---4------4---2------2-----0------0-|
G|------8----6------6---4------4---2------2-----0------0-|
C|-888888--8-6-666666-6-4-444444-4-2-222222-2-0-0-000000-|
PM *****   *   *****  *   *****  *   *****  * *   ***** 

Verses
D|-----------------------------------------------------------------------------------------------------------|
A|-----------------------------------------------------------------------------------------------------------|
F|-----------------------------------------------5--------------------------------------------------------13-|
C|-------------------------------------7-5---5-7---7/8-------------------------------------15-13----13-15----|
G|-----------------------------------------8-------7/8-------------------------------------------16----------|
C|-000-00-0000-00-000-00-00000-00-0000-------------7/8-888-88-8888-88-888-88-88888-88-8888-------------------|
PM *** ** **** ** *** ** ***** ** ****                 *** ** **** ** *** ** ***** ** ****

D|----------------------------------------------------------------|
A|----------------------------------------------------------------|
F|--------------------------------------------------------7-------|
C|-15/16---------------------------------------9-7----7-9---567\\-|
G|-15/16-------------------------------------------10-------567\\-|
C|-15/16\\-777-77-7777-77-777-77-77777-77-7777--------------567\\-|
PM         *** ** **** ** *** ** ***** ** ****


************************************

| /   slide up
| \   slide down
| h   hammer-on
| p   pull-off
| ~   vibrato
| +   harmonic
| x   Mute note
| b   Bend
| pb  Pre-bend
| br  Bend release
| pbr Pre-bend release
| brb Bend release bend

************************************    

Added On February 3rd, 2015

SHARE

Comments

blog comments powered by Disqus

ADVERTISEMENT