Washya Tabs

Customary

1 versions

TAB

            -------------------------------------------------------------------------------
                             Customary - Washya
-------------------------------------------------------------------------------
Tabbed by:
E-mail:

Tuning: Drop B (BF#BEG#C#)
intro 1
B|-----------------------|
F#|----------------------|
B|-----------------------|
E|-----------------------|
G#|-00-11-00-11-00-1-1-1-|
C#|-00-11-00-11-00-1-1-1-|
       ^ones
intro 2
B|-----------------------------------------------|
F#|----------------------------------------------|
B|-----------------------------------------------|
E|-----------------------------------------------|
G#|-33h44-33h44-33h44-1-1--33h44-33h44-33h44-3-1-|
C#|-33h44-33h44-33h44-1-1--33h44-33h44-33h44-3-1-|

Break 

Then (verses 1) (tremelo picking)
B|-----------------------------------------------------------------------------------------------|
F#|----------------------------------------------------------------------------------------------|
B|-----------------------------------------------------------------------------------------------|
E|-----------------------------------------------------------------------------------------------|
G#|-12-12-12-12-12-12-12-12-12-12-12-12-12/13-13-13-13-13-13-13\12/13/15-15-15-15-15-15-15\13/15-|
C#|----------------------------------------------------------------------------------------------|
PM  XX XX XX XX XX XX XX XX XX XX XX XX XX XX XX XX XX XX XX XX XX XX XX XX XX XX XX XX XX XX XX

B|-----------------------------------------|
F#|----------------------------------------|
B|-----------------------------------------|
E|-----------------------------------------|
G#|-5555555555555/6666666\5/6/88888888\6/8-|
C#|----------------------------------------|
PM  XXXXXXXXXXXXX XXXXXXX X X XXXXXXXX X X 

Just Before Chorus
B|-----------------------------------------|
F#|----------------------------------------|
B|--888\777/10-10-10\777/888\555-----------|
E|-----------------------------------------|
G#|-666\555/8--8--8-\555/666\333-0-1-0-3/4-|
C#|------------------------------0-1-0-3/4-|

Chorus  1
B|-------------------------------------------------------------------------------------|
F#|------------------------------------------------------------------------------------|
B|-------------------------------------------------------------------------------------|
E|----------------3-------------------------1-1---------------6------------------------|
G#|---------------3-------------------------1-1---------------6--------------66-----66-|
C#|-6-5-3-0-6-5-3---6-5-3-0-3-2-1-0-3-2-1-0-----8-7-6-4-8-7-6---8-7-6-4-/000-66-000-66-|

Chorus 2  (palm muted 1st, second unpalmuted)
B|-------------------------------------------------------------------------------------|
F#|------------------------------------------------------------------------------------|
B|-------------------------------------------------------------------------------------|
E|----------------3-------------------------1-1---------------6------------------------|
G#|-6-5-3-0-6-5-3-3-6-5-3-0-3-2-1-0-3-2-1-0-1-1-8-7-6-4-8-7-6-6-8-7-6-4--000-66-000-66-|
C#|-6-5-3-0-6-5-3---6-5-3-0-3-2-1-0-3-2-1-0-----8-7-6-4-8-7-6---8-7-6-4-/000-66-000-66-|



************************************

| /   slide up
| \   slide down
| h   hammer-on
| p   pull-off
| ~   vibrato
| +   harmonic
| x   Mute note
| b   Bend
| pb  Pre-bend
| br  Bend release
| pbr Pre-bend release
| brb Bend release bend

************************************    

Added On January 30th, 2015

SHARE

Comments

blog comments powered by Disqus

ADVERTISEMENT