Washya Tabs

Danger And Seduction

1 versions

TAB

            -----------------------------------------------------------------------------
               Danger and Seduction - Washya
-----------------------------------------------------------------------------
Tuning: Standard (ebgDAE)
Intro
e|----------------------------------------------------------------|
b|----------------------------------------------------------------|
g|----------------------------------------------------------------|
D|--------11-10-9----------------------------0----------543-------|
A|--------9--8--7-11-10-9----------3p2p0h2h3------------321-543-2-|
E|-000000---------9--8--7-00000000-------------00000000-----321-0-|
PM ******                 ********             ********     ***

Verses
e|---------------------------------------------------------------|
b|---------------------------------------------------------------|
g|---------------------------------------------------------------|
D|------------------2----2----3\2--------------------------------|
A|------------------2----2----3\2------------0h3p2p0h2p0h2-333h5-|
E|-0h22222222222-00---00---00-----2222222222---------------111h3-|
PM ************* **   **   **     **********

Chorus
e|------------------------------------------------------|
b|------------------------------------------------------|
g|------------------------------------------------------|
D|----2---2---2-------------------2---2---3-------------|
A|----2---2---2----3p2p0h2p0h2----2---2---3----5/7/10\8-|
E|-00---0---0---00-------------00---0---0---00-3/5/8\-6-|
PM **   *   *   **             **   *   *   **    

Added On December 16th, 2013

SHARE

Comments

blog comments powered by Disqus

ADVERTISEMENT