Washya Tabs

Dark Abyss

1 versions

TAB

            -------------------------------------------------------------------------------
                             Dark Abyss - Washya
-------------------------------------------------------------------------------
Tabbed by:
E-mail:

Tuning: Standard (EADGBE)
e|---0-------0-----------0-------------0-----0---0--------|
B|-------3-------3-----3-0-----------------3-------3------|
G|-----2-------2-----2-------------------2-----2-----2----|
D|-2-------3-------2-------------2^-22-----------------3-2|
A|-2-------3-------2----------------22-----------------3-2|
E|-0-------1-------0-------0-1-2----00-----------------1-0|
PM                         * * *  

e|--------------------------0-------0----------12----------13----------|
B|------------------------------3---0-------14----13-12-13-------------|
G|----------------------------2---2-----/15-------------------15^------|
D|-------3------------2-2-3-----------2---------------------------3-3-2|
A|---------2^-------2---2-3-----------2---------------------------3-3-2|
E|-0-1-2------0-2-3-----0-1-----------0---------------------------1-1-0|
PM * * *      * * * 

e|-------0-----------0-----------0-----------0-----------0-------0-------0-------0-----0-----0|
B|-----0---0-------0---0-------0---0-------3---3-------0---1---1---1---1---1---3-----3-----3-0|
G|---3-------3---2-------2---3-------3---3-------3---3-------2-------2-------2----------------|
D|-2-----------2-----------2-----------2-----------2-------------------------------2-----3----|
A|--------------------------------------------------------------------------------------------|
E|--------------------------------------------------------------------------------------------|


e|---------|
B|---------|
G|---------|
D|-2-7-6--3|
A|-2-7-6--3|
E|-0-5-4--1|

e|----------------------------------------------------------------------------------------------------------|
B|----------------------------------------------------------------------------------------------------------|
G|----------------------------------------------------------------------------------------------------------|
D|-9\8-8-8-8-8-8-8-8-8-8-8-8-8-8-8-8-8/9\6-6-6-6-6-6-6-6-6-6-6-6-6-6-6-6/7\4-4-4-4-4-4-4-4-4-4-4-4-4-4-4-4-2|
A|-7\6-6-6-6-6-6-6-6-6-6-6-6-6-6-6-6-6/7\4-4-4-4-4-4-4-4-4-4-4-4-4-4-4-4/5\2-2-2-2-2-2-2-2-2-2-2-2-2-2-2-2-0|
E|----------------------------------------------------------------------------------------------------------|
PM * * * * * * * * * * * * * * * * * * * * * * * * * * * * * * * * * * * * * * * * * * * * * * * * * * * * 


e|----------------------------------------------------------------------------------------------|
B|----------------------------------------------------------------------------------------------|
G|----------------------------------------------------------------------------------------------|
D|-3-3-2-------------------------------------------------------------------------------------2-3|
A|-3-3-2-----------------------------------555522223333------555522223333--------------------2-3|
E|-1-1-0-3333222255553333-3333222255553333--------------5555--------------5555-0-2-3-0-5-2-3-0-1|
PM       **************** **************** ************ **** ************ **** * * * * * * * 

e|------------------------------------------------------------------------------------------------------------|
B|------------------------------------------------------------------------------------------------------------|
G|------------------------------------------------------------------------------------------------------------|
D|-------------------------------------------2-----------2-2-----------------------------4-----4-4--99-----7-7|
A|-44-4-4444-4-44-4444-4-44-4444-4-4-44-4444-2-44-4-4444-2-2-44-4-4444-44-4444-44-4-4444-4-444-4-4-/77-----7-7|
E|-22-2-2222-2-22-2222-2-22-2222-2-2-22-2222---22-2-2222-----22-2-2222-22-2222-22-2-2222---222---------222----|
PM ** * **** * ** **** * ** **** * * ** ****   ** * ****     ** * **** ** **** ** * ****   ***         *** 

e|-------0-----------0-----------0-----------0-----------0-------0-------0-------0-----0-----0|
B|-----0---0-------0---0-------0---0-------3---3-------0---1---1---1---1---1---3-----3-----3-0|
G|---3-------3---2-------2---3-------3---3-------3---3-------2-------2-------2----------------|
D|-2-----------2-----------2-----------2-----------2-------------------------------2-----3----|
A|--------------------------------------------------------------------------------------------|
E|--------------------------------------------------------------------------------------------|
************************************

| /   slide up
| \   slide down
| h   hammer-on
| p   pull-off
| ~   vibrato
| +   harmonic
| x   Mute note
| b   Bend
| pb  Pre-bend
| br  Bend release
| pbr Pre-bend release
| brb Bend release bend

************************************    

Added On January 20th, 2015

SHARE

Comments

blog comments powered by Disqus

ADVERTISEMENT